Guitar Tabs, Chords and Lyrics


Enjoy The Silence   Breaking Benjamin



Band- Breaking Benjamin
Song- Enjoy The Silence

DADGBE

 Intro
|------------------------------------------------------------|
|----------------------------------------3--------------3----|
|----7-9----7-5-----7-9----7-5-----3-2------5-----3-2------5-|
|---0-0----0-0-----0-0----0-0-----0-0--0--0------0-0--0--0---|
|--0------0-------0------0-------0----0---------0----0-------|
|-0------0-------0------0-------0----0---------0----0--------|


Bridge
|----------------------------|
|----------------------------|
|----------------------------|
|-000-00-00-00-333-33-33-33--|
|-000-00-00-00-333-33-33-33--|
|-000-00-00-00-333-33-33-33--|

|------------------------------------------------------------|
|----------------------------------------3--------------3----|
|----7-9----7-5-----7-9----7-5-----3-2------5-----3-2------5-|
|---0-0----0-0-----0-0----0-0-----0-0--0--0------0-0--0--0---|
|--0------0-------0------0-------0----0---------0----0-------|
|-0------0-------0------0-------0----0---------0----0--------|


Verse
|-------------------------------------|
|-------------------------------------|
|-------------------------------------|
|-00000000-33333333-8888888888888/777-|
|-00000000-33333333-8888888888888/777-|
|-00000000-33333333-8888888888888/777-|
  ******** ******** ************* Palm Mute

Chorus
|--------------------------------------------|
|--------------------------------------------|
|--------------------------------------------|
|-55555555-10-10-10-10-10-10-777777-55555555-|
|-55555555--8-8-8-8-8-8-8-8--555555-33333333-|
|-55555555--8-8-8-8-8-8-8-8------------------|

|--------------------------------------------|
|--------------------------------------------|
|--------------------------------------------|
|-55555555-10-10-10-10-10-10-777777-66666666-|
|-55555555--8-8-8-8-8-8-8-8--555555-44444444-|
|-55555555--8-8-8-8-8-8-8-8------------------|


Bridge
|--------------|
|--------------|
|--------------|
|--------------|
|--------------|
|-000-00-00-00-|
  *** ** ** ** Palm Mute

|----------------------------|
|----------------------------|
|----------------------------|
|-000-00-00-00-333-33-33-33--|
|-000-00-00-00-333-33-33-33--|
|-000-00-00-00-333-33-33-33--|

|------------------------------|
|------------------------------|
|----7-9----7-5-----7-9----7-5-|
|---0-0----0-0-----0-0----0-0--|
|--0------0-------0------0-----|
|-0------0-------0------0------|


Verse
|-------------------------------------|
|-------------------------------------|
|-------------------------------------|
|-00000000-33333333-8888888888888/777-|
|-00000000-33333333-8888888888888/777-|
|-00000000-33333333-8888888888888/777-|
  ******** ******** ************* Palm Mute

Chorus
|--------------------------------------------|
|--------------------------------------------|
|--------------------------------------------|
|-55555555-10-10-10-10-10-10-777777-55555555-|
|-55555555--8-8-8-8-8-8-8-8--555555-33333333-|
|-55555555--8-8-8-8-8-8-8-8------------------|

|--------------------------------------------|
|--------------------------------------------|
|--------------------------------------------|
|-55555555-10-10-10-10-10-10-777777-66666666-|
|-55555555--8-8-8-8-8-8-8-8--555555-44444444-|
|-55555555--8-8-8-8-8-8-8-8------------------|


Solo
|------------------------------|
|------------6-----------------|
|----7-9------5-----5-2----5-2-|
|---0-0----0-0-----3-3----3-3--| X2
|--0------0-------0------0-----|
|-0------0-------0------0------|


Bridge 2
|-----------|
|-----------|
|-----------|
|-5-10--7-5-|
|-5--8--5-3-|
|-5--8------|

|-----------|
|-----------|
|-----------|
|-5-10--7-6-|
|-5--8--5-4-|
|-5--8------|


Chorus
|--------------------------------------------|
|--------------------------------------------|
|--------------------------------------------|
|-55555555-10-10-10-10-10-10-777777-55555555-|
|-55555555--8-8-8-8-8-8-8-8--555555-33333333-|
|-55555555--8-8-8-8-8-8-8-8------------------|

|--------------------------------------------|
|--------------------------------------------|
|--------------------------------------------|
|-55555555-10-10-10-10-10-10-777777-66666666-|
|-55555555--8-8-8-8-8-8-8-8--555555-44444444-|
|-55555555--8-8-8-8-8-8-8-8------------------|


Ending
|------------------------------|
|------------6-----------------|
|----7-9------5-----5-2----5-2-|
|---0-0----0-0-----3-3----3-3--|
|--0------0-------0------0-----|
|-0------0-------0------0------|
                                   X2
|------------------------------|
|------------6---------5-------|
|----7-9------5-----5------5-2-|
|---0-0----0-0-----3-3----3-3--|
|--0------0-------0------0-----|
|-0------0-------0------0------|

|--------------------------------------------|
|--------------------------------------------|
|--------------------------------------------|
|-55555555-10-10-10-10-10-10-777777-55555555-|
|-55555555--8-8-8-8-8-8-8-8--555555-33333333-|
|-55555555--8-8-8-8-8-8-8-8------------------|

|--------------------------------------------|
|--------------------------------------------|
|--------------------------------------------|
|-55555555-10-10-10-10-10-10-777777-66666666-|
|-55555555--8-8-8-8-8-8-8-8--555555-44444444-|


Important: The song above is NOT stored on the Chordie server. The original song is hosted at www.guitaretab.com. Chordie works as a search engine and provides on-the-fly formatting. Chordie does not index songs against artists/composers will. To remove this song please click here.

This song is displayed as text-only. Transposing and tuning is only available for chordpro-songs.

Login - add to songbook

Rating click stars to rate

Layout
Accuracy

SHARE PAGE  




You need to log in to post comments