Enjoy The Silence

Breaking Benjamin


Band- Breaking Benjamin Song- Enjoy The Silence
DADGBE
Intro |------------------------------------------------------------| |----------------------------------------3--------------3----| |----7-9----7-5-----7-9----7-5-----3-2------5-----3-2------5-| |---0-0----0-0-----0-0----0-0-----0-0--0--0------0-0--0--0---| |--0------0-------0------0-------0----0---------0----0-------| |-0------0-------0------0-------0----0---------0----0--------|
Bridge |----------------------------| |----------------------------| |----------------------------| |-000-00-00-00-333-33-33-33--| |-000-00-00-00-333-33-33-33--| |-000-00-00-00-333-33-33-33--|
|------------------------------------------------------------| |----------------------------------------3--------------3----| |----7-9----7-5-----7-9----7-5-----3-2------5-----3-2------5-| |---0-0----0-0-----0-0----0-0-----0-0--0--0------0-0--0--0---| |--0------0-------0------0-------0----0---------0----0-------| |-0------0-------0------0-------0----0---------0----0--------|
Verse |-------------------------------------| |-------------------------------------| |-------------------------------------| |-00000000-33333333-8888888888888/777-| |-00000000-33333333-8888888888888/777-| |-00000000-33333333-8888888888888/777-| ******** ******** ************* Palm Mute
Chorus |--------------------------------------------| |--------------------------------------------| |--------------------------------------------| |-55555555-10-10-10-10-10-10-777777-55555555-| |-55555555--8-8-8-8-8-8-8-8--555555-33333333-| |-55555555--8-8-8-8-8-8-8-8------------------|
|--------------------------------------------| |--------------------------------------------| |--------------------------------------------| |-55555555-10-10-10-10-10-10-777777-66666666-| |-55555555--8-8-8-8-8-8-8-8--555555-44444444-| |-55555555--8-8-8-8-8-8-8-8------------------|
Bridge |--------------| |--------------| |--------------| |--------------| |--------------| |-000-00-00-00-| *** ** ** ** Palm Mute
|----------------------------| |----------------------------| |----------------------------| |-000-00-00-00-333-33-33-33--| |-000-00-00-00-333-33-33-33--| |-000-00-00-00-333-33-33-33--|
|------------------------------| |------------------------------| |----7-9----7-5-----7-9----7-5-| |---0-0----0-0-----0-0----0-0--| |--0------0-------0------0-----| |-0------0-------0------0------|
Verse |-------------------------------------| |-------------------------------------| |-------------------------------------| |-00000000-33333333-8888888888888/777-| |-00000000-33333333-8888888888888/777-| |-00000000-33333333-8888888888888/777-|
******** ******** ************* Palm Mute
Chorus |--------------------------------------------| |--------------------------------------------| |--------------------------------------------| |-55555555-10-10-10-10-10-10-777777-55555555-| |-55555555--8-8-8-8-8-8-8-8--555555-33333333-| |-55555555--8-8-8-8-8-8-8-8------------------|
|--------------------------------------------| |--------------------------------------------| |--------------------------------------------| |-55555555-10-10-10-10-10-10-777777-66666666-| |-55555555--8-8-8-8-8-8-8-8--555555-44444444-| |-55555555--8-8-8-8-8-8-8-8------------------|
Solo |------------------------------| |------------6-----------------| |----7-9------5-----5-2----5-2-| |---0-0----0-0-----3-3----3-3--| X2 |--0------0-------0------0-----| |-0------0-------0------0------|
Bridge 2 |-----------| |-----------| |-----------| |-5-10--7-5-| |-5--8--5-3-| |-5--8------|
|-----------| |-----------| |-----------| |-5-10--7-6-| |-5--8--5-4-| |-5--8------|
Chorus |--------------------------------------------| |--------------------------------------------| |--------------------------------------------| |-55555555-10-10-10-10-10-10-777777-55555555-| |-55555555--8-8-8-8-8-8-8-8--555555-33333333-| |-55555555--8-8-8-8-8-8-8-8------------------|
|--------------------------------------------| |--------------------------------------------| |--------------------------------------------| |-55555555-10-10-10-10-10-10-777777-66666666-| |-55555555--8-8-8-8-8-8-8-8--555555-44444444-| |-55555555--8-8-8-8-8-8-8-8------------------|
Ending |------------------------------| |------------6-----------------| |----7-9------5-----5-2----5-2-| |---0-0----0-0-----3-3----3-3--| |--0------0-------0------0-----| |-0------0-------0------0------| X2 |------------------------------| |------------6---------5-------| |----7-9------5-----5------5-2-| |---0-0----0-0-----3-3----3-3--| |--0------0-------0------0-----| |-0------0-------0------0------|
|--------------------------------------------| |--------------------------------------------| |--------------------------------------------| |-55555555-10-10-10-10-10-10-777777-55555555-| |-55555555--8-8-8-8-8-8-8-8--555555-33333333-| |-55555555--8-8-8-8-8-8-8-8------------------|
|--------------------------------------------| |--------------------------------------------| |--------------------------------------------| |-55555555-10-10-10-10-10-10-777777-66666666-| |-55555555--8-8-8-8-8-8-8-8--555555-44444444-| |-55555555--8-8-8-8-8-8-8-8------------------|



















variations - click chord images
Transpose chords:
Tuning:
Cool service:
View: Size:
A  A  A
Rating:
Layout:
  • Currently 0/5 Stars.
  • 1
  • 2
  • 3
  • 4
  • 5
 
Accuracy:
  • Currently 2.9/5 Stars.
  • 1
  • 2
  • 3
  • 4
  • 5
 
click stars to rate
Chordie recommends:
Check out these online guitar lessons
Songbook:
Login to add this song to your songbook
Support the artist
Preview/buy this song
MSN Music
Why this non-profit ad?

 
login to add comments/video/corrections