Guitar Tabs, Chords and Lyrics


A Cinderella Story  Breathing Underwater

e--7---6-------4---6--|


B--7---7-------4---7--|


G--6---8-------5---8--|x1

D--9---8---6---6------|
A--9---6-------6------|
E--7-----------4------|
G--------------------|
D--------8-9-6-------|
A--6-9-6-------6-9---|
E------------------9-|
[B]Awake, she g[Ebm]azes into her re[G#m]flection.   [Ebm]
[B]Black and blue [Ebm]covering her face,[G#m] again,     [Ebm]again
[B]She swears, [Ebm]one more time and she'll [G#m]leave him, for [Ebm]good.
[B]He claims [Ebm]he never meant to [G#m]hurt her.
Ebm (hold)
He's hard to believe.

[B]She waits around fo[Ebm]r someone to come and [G#m]save her, de[Ebm]cades pass her.
[B]She waits around fo[Ebm]r someone to come and [G#m]save her, de[Ebm]cades pass her by.

Cello Part
G--------------------|
D--------8-9-6-------|
A--6-9-6-------6-9---|
E------------------9-|


Piano Chords Underneath
B(x4) Ebm(x4) G#m(x4) Ebm(x4)

[B]Awake, he'll [Ebm]spend another day [G#m]alone,   [Ebm]alone.
[B]All he wants [Ebm]is someone to call [G#m]his own, [Ebm]his own
[B]He has [Ebm]everything to [G#m]offer to [Ebm]her.
[B]Maybe [Ebm]one of these days he'l[G#m]l tell her [Ebm]just how he feels.

[B]He waits around for [Ebm]a Cinderella [G#m]story-type [Ebm]ending.
[B]He waits around for [Ebm]a Cinderella [G#m]story-type [Ebm]ending.
Violin Part (kind of a solo)
  [G]                                [B]                      [G]                                       
e---------------|------------------|-------------------|----------------|
B---------------|------------------|-------------------|----------------|
G-----11--12----|------11---12-----|----------9--------|-----11---12----|
D--9----------9-|-(9)-----------9--|--9--12----12-11---|--9-----------9-|
A---------------|------------------|-------------------|----------------|
E---------------|------------------|-------------------|----------------|

(cont.)
            [B]                                                                                   
|------------------|
|------------------|
|------11---14-11--|
|-(9)--------------|
|------------------|
|------------------|


[Ebm]He's hard to believe

[B]She waits around fo[Ebm]r someone to come and [G#m]save her, de[Ebm]cades pass her.
[B]She waits around fo[Ebm]r someone to come and [G#m]save her, de[Ebm]cades pass her by.
(cello part) B Ebm G#m Ebm
He waits around for a Cinderella story-type ending.
[B]He waits around for [Ebm]a Cinderella [G#m]story-type [Ebm]ending.


Cello Part
G--------------------|
D--------8-9-6-------|
A--6-9-6-------6-9---|
E------------------9-|


Piano Chords Underneath
B(x4) Ebm(x4) G#m(x4) Ebm(x4)

Fade then end with cello on its own
G-------------------------------|
D--------8-9-6------------------|
A--6-9-6-------6-9--------------|
E------------------9---7(hold)--|				


Important: The song above is NOT stored on the Chordie server. The original song is hosted at www.guitaretab.com. Chordie works as a search engine and provides on-the-fly formatting. Chordie does not index songs against artists'/composers' will. To remove this song please click here.

Text color:
Chord color:
Chord grids: 
Font size:    
Page size: 

B Ebm G G#m
variations - click chord images

Login - add to songbook

Transpose chords

Tuning

Rating click stars to rate

Layout
Accuracy

SHARE PAGE  




You need to log in to post comments