Chordie logo

Hag   Breeders









Hag

The Breeders


Over the intro and verse, play like so:


	-----------------------------------|
	---------------------7-7--6-6--4---|
	---------------------7-7--6-6--4---|
	---------------------7-7--6-6--4---|
	-2--6--9----7/3------5-5--4-4--2---|
	-----------------------------------|


then:	All night    All night    All night

	F#			  B			(strum)
	--2------------------------4----------------------|
	--2------------------------4----------------------|
	--3------------------------4----------------------|
	--4------------------------4----------------------|
	--4------------------------2----------------------|
	--2-----------------------------------------------|


	Under the stars  under their light

	F#			 			(strum)
	--2----------------------------------------------|
	--2----------------------------------------------|
	--3----------------------------------------------|
	--4----------------------------------------------|
	--4----------------------------------------------|
	--2----------------------------------------------|


	All over the girl  only looks bright

	F#     	     E				    E7	(strum)
	--2----------------------------------------------|
	--2------------------------------------------3---|
	--3-----------1------------------------------1---|
	--4-----------2------------------------------2---|
	--4-----------2------------------------------2---|


Important: The song above is NOT stored on the Chordie server. The original song is hosted at www.guitaretab.com. Chordie works as a search engine and provides on-the-fly formatting. Chordie does not index songs against artists/composers will. To remove this song please click here.

This song is displayed as text-only. Transposing and tuning is only available for chordpro-songs.

Login - add to songbook

Rating click stars to rate

Layout
Accuracy

Jango Player

SHARE PAGE  

You need to log in to post comments