""; ?> Saints by Breeders - guitar chords, guitar tabs and lyrics - chordie

Saints

Breeders

	-------------------------|

-------------------------|
-----------11------------|
----8-9-11---------------|
--9----------------------|
-------------------------|

 BC#F#
        like all the different people

 BC#F#
        like sticky everywhere

 C#F#
        Look around  you bet I'll be there

blah blah blah

Chorus:
just arpeggiate the F# and C# barre chords,
something like this:

(summer's ready)
 F#
 	--------9----------------9------------------|
 	----11------11-------11------11-------------|
 	------11--11--11-------11--11--11-----------|
 	--11---------------11-----------------------|
 	--------------------------------------------|
 	--------------------------------------------|


Summer is ready when you are
 C#F#
 	-------------------------9------------------|
 	-------9-------------11-------11------------|
 	---10----10--10--------11---11--11----------|
 	-----11----11------11-----------------------|
 	--9-----------------------------------------|
 	--------------------------------------------|


Solo:
variations of:

	-------------------------|
	-------------------------|
	-----------11------------|
	----8-9-11-------9-8-----|
	--9-------------------9--|
	-------------------------|
	-------------------------|
	-------------------------|
	-----------9-------------|
	----8-9-11-------9-8-----|
	--9-------------------9--|
	-------------------------|				









B C# F#
variations - click chord images
Transpose chords:
Tuning:
Cool service:
View: Size:
A  A  A
Rating:
Layout:
  • Currently 2.9/5 Stars.
  • 1
  • 2
  • 3
  • 4
  • 5
 
Accuracy:
  • Currently 3.6/5 Stars.
  • 1
  • 2
  • 3
  • 4
  • 5
 
click stars to rate
Chordie recommends:
Check out JamPlay.com for online video guitar lessons
Songbook:
Login to add this song to your songbook
Support the artist
Preview/buy this song
MSN Music
Why this non-profit ad?

 
login to add comments/video/corrections