""; ?> Saled With A Kiss by Brian Hyland - guitar chords, guitar tabs and lyrics - chordie

Saled With A Kiss

Brian Hyland

       e|--6------1------7------2------0------3------0------6------3--|

B|--6------3------7------3------1------5------0------8------3--|
G|--7------3------7------4------3------3------1------8------4--|
D|--8------3------9------4------2------5------2------8------5--|
A|--8------1------9------2------3------3------2------6------5--|
E|--6------0------7------0------0------0------0------6------3--|

 EbFmEbFm
                  e|--13-11-9-8-9-----------------------|
                  B|—---------------6-8-9~8--4-6--4-6---|
                  G|------------------------------------|
                  D|------------------------------------|
                  A|------------------------------------|
                  E|------------------------------------|


 A#mFmA#mEbFm
Though we gotta say goodbye for the summer, darling, I promise you this:

 FA#mFmA#mFm
I'll send you all my love every day in a letter, sealed with a kiss.

 A#mFmA#mEbFm
Guess it's gonna be a cold, lonely summer, but, I'll fill the emptiness.

 FA#mFmA#mFm
I'll send you all my dreams every day in a letter, sealed with a kiss.

 A#FmA#Fm
I'll see you in the sunlight, I'll hear your voice everywhere,

 A#FmGC7
I'll run to tenderly hold you, but Darling, you won't be there.

 A#mFmA#mEbFm
I don't wanna say goodbye for the summer, knowing the love we'll miss.

F A#m Eb Fm A#m Eb Fm Eb, Fm.
Oh, let us make a pledge to meet in September, and seal it with a kiss

Harmonic's solo:

 A#mFmA#mEbFmF
     e|------------------------------|----9-9-6-11-6-8--8-13-11-9-8-9--|
     B|--6-6-9-9--13-13-11--9-8-9-6--|--6------------------------------|
     G|------------------------------|---------------------------------|
     D|------------------------------|---------------------------------|
     A|------------------------------|---------------------------------|
     E|------------------------------|---------------------------------|


 A#mFmA#mFm
     e|--9h11-9-8--8-6-8------|------------|
     B|------------------9-6--|--11-9-8-6--|
     G|-----------------------|------------|
     D|-----------------------|------------|
     A|-----------------------|------------|
     E|-----------------------|------------|


 F#mBmF#mBmEF#m
Guess it's gonna be a cold, lonely summer, but, I'll fill the emptiness.

 F#BmF#mBmF#mBm
I'll send you all my love every day in a letter, sealed with a kiss.    
(Riff 1)
 F#mBmF#
sealed with a kiss, sealed with a kiss…
(Riff 1) (Riff 2)

Riff 1 Riff 2
              e|-------9-7--|      e|---------9--|-----------|
              B|—-7-10------|      B|—-11-9-7----|-----------|
              G|------------|      G|------------|--6-6-6----|
              D|------------|      D|------------|-----------|
              A|------------|      A|------------|-----------|
              E|------------|      E|------------|--------2--|


Hi everybody, this is my version without capo of this song, is very, very good, my name
Adrián González Jiménez, & there is other tab, it's mine too...

Well is a good song, play it¡¡¡ Imordeglo@hotmail.com See you.


A# A#m Bm C7 E Eb F F# F#m Fm G
variations - click chord images
Transpose chords:
Tuning:
Cool service:
View: Size:
A  A  A
Rating:
Layout:
  • Currently 2.7/5 Stars.
  • 1
  • 2
  • 3
  • 4
  • 5
 
Accuracy:
  • Currently 2.8/5 Stars.
  • 1
  • 2
  • 3
  • 4
  • 5
 
click stars to rate
Chordie recommends:
Get acoustic guitar lessons and electric guitar lessons at JamPlay.com
Songbook:
Login to add this song to your songbook
Support the artist
Preview/buy this song
MSN Music
Why this non-profit ad?

 
login to add comments/video/corrections