Chordie logo

Anenome  Brian Jonestown Massacre

E  (0-2-2-1-0-0)---|


E? (0-2-0-1-0-0)---|


G (3-2-0-0-0-3)----|


A (0-0-2-2-2-0)----|


Asus (0-0-2-0-2-0)-|






e-0-0-00-0-0--11--0-0-00-0-0-00--|


B-0-0-00-0-0--00--2-2-22-2-2-22--|


G-1-1-11-1-1--00--2-2-00-2-2-00--|


D-2-2-00-2-2--00--2-2-22-2-2-22--|


A-2-2-22-2-2--22--0-0-00-0-0-00--|


E-0-0-00-0-0--33--0-0-00-0-0-00--|



[E]I... I think I [G]know how i [A]feel
cause [E]i...i only play [G]it for r[A]eal
you should be picking me [E]up
instead youre dr[G]agging me d[A]own
your flying over my [E]head
youre landing all [G]over t[A]own


Solo/Intro in all variations:

e-------------------------------------------------------------------|
B-------------------------------------------------------------------|
G-------------------------------------------------------------------|
D-7-5-------------------5-7^^-5-5h7--7-5----------------------------|
A------7-5h7-5-5h7---5h7-7----------------7-5h7-5-5h7---------------|
E------------------------------------------------------5-3-0--3-5-0-|
e------------------------------------------------------------|
B-------------------------------------------8-8-7-7-7h8h10---|
G----------------------------------7-9-----9-9-9-9-----------|
D-7-5-------------------5-7^^-5-7/9-9------------------------|
A------7-5h7-5-5h7---5h7-7-----------------------------------|
E------------------------------------------------------------|
e------10--12-----12-----------------------------------------|
B-10/12--12-----12--12---10^^p8-------8-8-7-7----------------|
G------------------------------9-7-7h9-9-9-9-----etc.--------|
D------------------------------------------------------------|
A------------------------------------------------------------|
E------------------------------------------------------------|				


Important: The song above is NOT stored on the Chordie server. The original song is hosted at www.guitaretab.com. Chordie works as a search engine and provides on-the-fly formatting. Chordie does not index songs against artists/composers will. To remove this song please click here.

A E G
variations - click chord images

Login - add to songbook

Transpose chords

Tuning

Rating click stars to rate

Layout
Accuracy

SHARE PAGE  

You need to log in to post comments