B (2-2-4-4-4-2)and (7-9-9-8-7-7)

A (5-7-7-6-5-5)and (0-0-2-2-2-0)
 F#2-4-4-3-2-2

Intro: E B A C#m G# F# A B x2

e-7-------------------------------------------------
B------10---9-10-7-9^10-------7-9-7-----------------
G-----------------------------------9---------------
D---------------------------------------------------
A---------------------------------------------------
E---------------------------------------------------
e-7------------------12-14^15---12-14-12------------
B------10---9-10-9----------------------------------
G---------------------------------------------------
D---------------------------------------------------
A---------------------------------------------------
E---------------------------------------------------


 EBAC#mG#F#AB
 wonder why i bother getting out of bed  
 EBAC#mG#F#AB
 have this point of view i borrowed from a friend   
 EBAC#mG#F#AB
 he knows how hard it is to.....?              
 EBAC#mG#F#AB
 so if he wants to do it for me thats just fine  

 C#mAF#
 its easy when you realize
 F#G#AB
 you're nothing, you're nothing 
 C#mAF#G#AB
 it's easy when you realize        

E B A C#m G# F# A B x2

 EBAC#mG#F#AB
 wonder why i bother going out at all  
 EBAC#mG#F#AB
 have this room thats got no windows only walls  
 EBAC#mG#F#AB
 it gets so dark inside i lose track of the time  
 EBAC#mG#F#AB
 so if i sleep and die dont wake me i dont mind  

 C#mAF#
 its easy when you realize
 F#G#AB
 you're nothing, youre nothing
 C#mAF#G#AB
 its easy when you realize        

E B A C#m G# F# A B x4

E C#m A x2

 EC#mA
 trying to sleep but i always wake up
 EC#mA
havent seen you for weeks maybe we should break up
 EC#mA
 please dont ask why
 EC#mA
 baby dont ask why
 EC#mA
 please dont ask why
 EC#mA
 i think it's time we say goodbye
 F#AE
 oh....         

e-7-7-7-7--------------5-5-
B--5-5-5-5-5-5-5-4-4-5-----
G--------------------------


E C#m A x4

 EC#mA
lying here on the floor i cant stand up to it
 EC#mA
got to dream anymore these monsters haunting my sleep
 EC#mA
put a lock on the door to try and keep them outside
 EC#mA
but their in my head i dont know where i can hide
 EC#mA
so im talking to them cause i lost all my friends
 EC#mA
i can forget what i want so ill get drunk again
 EC#mA
i dont wanna feel anymore cause i only feel pain
 EC#mA
put my thoughts in the sink and watch them go down the drain

 F#ABE
E C#m A x2
 EC#mA
 lie down to sleep but i might stop breathing
 EC#mA
 my heart beats so weak im so scared of leaving
 EC#mA
 i dont wanna die
 EC#mA
 i dont wanna die
 EC#mA
 i dont wanna die
 EC#mA
 too fucking young to say goodbye
 F#A
 oh    


A B C#m E F# G#
variations - click chord images
Transpose chords:
Tuning:
Cool service:
View: Size:
A  A  A
Rating:
Layout:
  • Currently 2.7/5 Stars.
  • 1
  • 2
  • 3
  • 4
  • 5
 
Accuracy:
  • Currently 2.9/5 Stars.
  • 1
  • 2
  • 3
  • 4
  • 5
 
click stars to rate
Chordie recommends:
Check out JamPlay.com for online video guitar lessons
Songbook:
Login to add this song to your songbook
Support the artist
Preview/buy this song
MSN Music
Why this non-profit ad?

 
login to add comments/video/corrections