Dm (x-x-0-2-3-1)-|

G (3-2-0-0-0-3)--|
F (1-3-3-2-1-1)--|
C (0-3-2-0-1-0)--|
F2 (x-x-3-2-1-0)-|

 DmG
e----1-----1-------3-------3--------|
B---3-3---3-3-------0-------0-------|
G--2---2-2---2---0---0---0---0------|
D-0-----0-------0-------0-----------|
A-----------------------------------|
E--------------3-------3------------|


 DmG
 the rose it's self don't cut
 DmG
 only its raging thorns
 DmG
did you forget were you bleeding
 DmG
 petals of red

 DmG
 so fly high tell me
 DmG
 what does blue feel like
 DmG
 are stars really suns
 DmG
won't you come answer through my candle light

 FCG
e--------------------3------3----|
B----1-------1------0-0----0-0---|
G---2-2-----0-0----0---0--0---0--|
D--3---3---2---2-----------------|
A-3-----3-3-----3----------------|
E-----------------3------3-------|


 FCG
and goodbye  
 FCG
oh and goodbye  reign on
 FCG
oh and goodbye  reign on
 F2CG
and goodbye  




C Dm F F2 G
variations - click chord images
Transpose chords:
Tuning:
Cool service:
View: Size:
A  A  A
Rating:
Layout:
  • Currently 2.8/5 Stars.
  • 1
  • 2
  • 3
  • 4
  • 5
 
Accuracy:
  • Currently 2.6/5 Stars.
  • 1
  • 2
  • 3
  • 4
  • 5
 
click stars to rate
Chordie recommends:
Check out JamPlay.com for online video guitar lessons
Songbook:
Login to add this song to your songbook
Support the artist
Preview/buy this song
MSN Music
Why this non-profit ad?

 
login to add comments/video/corrections