"yes"; ?> All On Me by Briggs - guitar chords, guitar tabs and lyrics - chordie

All On Me

Briggs

-------------------------------------------------------------------------------

-------------------------------------------------------------------------------
e|-----|---|-----|--------------------|-------------|---------|
B|-----|---|-----|--------------------|-------------|---------|
G|-5-5-|-5-|-----|------8-8--5-5--7-7-|------8-8--5-|---------|
D|-x-x-|-5-|-8-7-|-5-5--8-8--5-5--7-7-|-5-5--8-8--5-|-8--7--8-|
A|-3-3-|-3-|-8-7-|-5-5--6-6--3-3--5-5-|-5-5--6-6--3-|-8--7--5-|
E|-----|---|-6-5-|-3-3----------------|-3-3---------|-6--5--3-|
e|--------------------|---------------------------|
B|--------------------|---------------------------|
G|-88888888888--------|-88888888888-----5555-7777-|
D|--------------8---5-|--------------8--5555-7777-|
A|--------------8---5-|--------------8--3333-5555-|
E|--------------6---3-|--------------6------------|
NOT++++++++E: You can also chang++++++++e the harmonics on the eight fret for
normal struming on the tenth fret of the e or first string.

So your battle is over
To us the war has just begun
Another soldier surrendered
But we'll fight the war and win at all costs

x2
e|--------------------|---------------------------|
B|--------------------|---------------------------|
G|-88888888888--------|-88888888888-----5555-7777-|
D|--------------8---5-|--------------8--5555-7777-|
A|--------------8---5-|--------------8--3333-5555-|
E|--------------6---3-|--------------6------------|

++++++++ ++++++++
You couldn't take all the madness
You couldn't take all the pain
Didn't know what we were fighting for
You made me realize it's all...

Chorus
x3
e|--------------------|-------------|---------|
B|--------------------|-------------|---------|
G|------8-8--5-5--7-7-|------8-8--5-|---------|
D|-5-5--8-8--5-5--7-7-|-5-5--8-8--5-|-8--7--5-|
A|-5-5--6-6--3-3--5-5-|-5-5--6-6--3-|-8--7--5-|
E|-3-3----------------|-3-3---------|-6--5--3-|


It's all on me!
It's all on me!
It's all on me!
Why'd you give up the fight?
It's all on me!

Verse
x2
e|--------------------|---------------------------|
B|--------------------|---------------------------|
G|-88888888888--------|-88888888888-----5555-7777-|
D|--------------8---5-|--------------8--5555-7777-|
A|--------------8---5-|--------------8--3333-5555-|
E|--------------6---3-|--------------6------------|

++++++++ ++++++++
Because of your surrender
We're behind enemy lines
You didn't just leave your brothers
When you fled you left your honor behind

x2
e|--------------------|---------------------------|
B|--------------------|---------------------------|
G|-88888888888--------|-88888888888-----5555-7777-|
D|--------------8---5-|--------------8--5555-7777-|
A|--------------8---5-|--------------8--3333-5555-|
E|--------------6---3-|--------------6------------|

++++++++ ++++++++
I can take all the madness
I can take all the pain
I know what I'm fighting for
You made me realize it's all...

Chorus
e|--------------------|
B|--------------------|
G|------8-8--5-5--7-7-|
D|-5-5--8-8--5-5--7-7-| x4
A|-5-5--6-6--3-3--5-5-|
E|-3-3----------------|


It's all on me!
It's all on me!
It's all on me!
Why'd you give up the fight?
It's all on me!

Solo/Bridge
e|-----------------------------------------------------------------|
B|-----------------------------------------------------------------|
G|-123456788888--123456788888--123456788888------------------------|
D|-----------------------------------------------------------------|
A|--------------------------------------------<<<<<<<<<(Pickslide)-|
E|-----------------------------------------------------------------|

+++++++++ +++++++++ +++++++++
x7
e|--------------|---------------------------------------|
B|--------------|---------------------------------------|
G|-17-19--16-19-|-17-16-15-14-13-12-11-10-9-8-7-6-5-4-3-|
D|-x--x---x--x--|-x--x--x--x--x--x--x--x--x-x-x-x-x-x-x-|
A|-15-17--14-17-|-15-14-13-12-11-10-9--8--7-6-5-4-3-2-1-|
E|--------------|---------------------------------------|


x7
e|-----|---|------|
B|-----|---|------|
G|-----|---|------|
D|-5-5-|-5-|-8--7-|
A|-5-5-|-5-|-8--7-|
E|-3-3-|-3-|-6--5-|


Chorus
x3
e|--------------------|--------------|
B|--------------------|--------------|
G|------8-8--5-5--7-7-|-17-19--16-19-|
D|-5-5--8-8--5-5--7-7-|-x--x---x--x--|
A|-5-5--6-6--3-3--5-5-|-15-17--14-17-|
E|-3-3----------------|--------------|


It's all on me!
It's all on me!
It's all on me!
Why'd you give up the fight?
It's all on me!

x3
e|--------------------|-------------|---------|
B|--------------------|-------------|---------|
G|------8-8--5-5--7-7-|------8-8--5-|---------|
D|-5-5--8-8--5-5--7-7-|-5-5--8-8--5-|-8--7--5-|
A|-5-5--6-6--3-3--5-5-|-5-5--6-6--3-|-8--7--5-|
E|-3-3----------------|-3-3---------|-6--5--3-|


It's all on me!
It's all on me!
It's all on me!
Why'd you give up the fight?
It's all on me!

===============================================================================


variations - click chord images
Transpose chords:
Tuning:
Cool service:
View: Size:
A  A  A
Rating:
Layout:
  • Currently 0/5 Stars.
  • 1
  • 2
  • 3
  • 4
  • 5
 
Accuracy:
  • Currently 2/5 Stars.
  • 1
  • 2
  • 3
  • 4
  • 5
 
click stars to rate
Chordie recommends:
Get acoustic guitar lessons and electric guitar lessons at JamPlay.com
Songbook:
Login to add this song to your songbook
Support the artist
Preview/buy this song
MSN Music
Why this non-profit ad?

 
login to add comments/video/corrections