Chordie logo


All On Me   Briggs


-------------------------------------------------------------------------------











-------------------------------------------------------------------------------



e|-----|---|-----|--------------------|-------------|---------|



B|-----|---|-----|--------------------|-------------|---------|



G|-5-5-|-5-|-----|------8-8--5-5--7-7-|------8-8--5-|---------|



D|-x-x-|-5-|-8-7-|-5-5--8-8--5-5--7-7-|-5-5--8-8--5-|-8--7--8-|



A|-3-3-|-3-|-8-7-|-5-5--6-6--3-3--5-5-|-5-5--6-6--3-|-8--7--5-|



E|-----|---|-6-5-|-3-3----------------|-3-3---------|-6--5--3-|



e|--------------------|---------------------------|



B|--------------------|---------------------------|



G|-88888888888--------|-88888888888-----5555-7777-|



D|--------------8---5-|--------------8--5555-7777-|



A|--------------8---5-|--------------8--3333-5555-|



E|--------------6---3-|--------------6------------|





NOT++++++++E: You can also chang++++++++e the harmonics on the eight fret for


normal struming on the tenth fret of the e or first string.





So your battle is over


To us the war has just begun


Another soldier surrendered


But we'll fight the war and win at all costs





          x2


                                                                                     


e|--------------------|---------------------------|
B|--------------------|---------------------------|
G|-88888888888--------|-88888888888-----5555-7777-|
D|--------------8---5-|--------------8--5555-7777-|
A|--------------8---5-|--------------8--3333-5555-|
E|--------------6---3-|--------------6------------|





   ++++++++                     ++++++++            


You couldn't take all the madness


You couldn't take all the pain


Didn't know what we were fighting for


You made me realize it's all...





Chorus


          x3


                                                                                     


e|--------------------|-------------|---------|
B|--------------------|-------------|---------|
G|------8-8--5-5--7-7-|------8-8--5-|---------|
D|-5-5--8-8--5-5--7-7-|-5-5--8-8--5-|-8--7--5-|
A|-5-5--6-6--3-3--5-5-|-5-5--6-6--3-|-8--7--5-|
E|-3-3----------------|-3-3---------|-6--5--3-|








It's all on me!


It's all on me!


It's all on me!


Why'd you give up the fight?


It's all on me!





Verse


          x2


                                                                                     


e|--------------------|---------------------------|
B|--------------------|---------------------------|
G|-88888888888--------|-88888888888-----5555-7777-|
D|--------------8---5-|--------------8--5555-7777-|
A|--------------8---5-|--------------8--3333-5555-|
E|--------------6---3-|--------------6------------|





   ++++++++                     ++++++++            


Because of your surrender


We're behind enemy lines


You didn't just leave your brothers


When you fled you left your honor behind





          x2


                                                                                     


e|--------------------|---------------------------|
B|--------------------|---------------------------|
G|-88888888888--------|-88888888888-----5555-7777-|
D|--------------8---5-|--------------8--5555-7777-|
A|--------------8---5-|--------------8--3333-5555-|
E|--------------6---3-|--------------6------------|





   ++++++++                     ++++++++            


I can take all the madness


I can take all the pain


I know what I'm fighting for


You made me realize it's all...





Chorus


                                                                                    


e|--------------------|
B|--------------------|
G|------8-8--5-5--7-7-|
D|-5-5--8-8--5-5--7-7-| x4
A|-5-5--6-6--3-3--5-5-|
E|-3-3----------------|








It's all on me!


It's all on me!


It's all on me!


Why'd you give up the fight?


It's all on me!





Solo/Bridge


                                                                                    


e|-----------------------------------------------------------------|
B|-----------------------------------------------------------------|
G|-123456788888--123456788888--123456788888------------------------|
D|-----------------------------------------------------------------|
A|--------------------------------------------

Important: The song above is NOT stored on the Chordie server. The original song is hosted at www.guitaretab.com. Chordie works as a search engine and provides on-the-fly formatting. Chordie does not index songs against artists/composers will. To remove this song please click here.

This song is displayed as text-only. Transposing and tuning is only available for chordpro-songs.

Login - add to songbook

Rating click stars to rate

Layout
Accuracy

SHARE PAGE  




You need to log in to post comments