A Few Minutes On Friday

Bright Eyes

 CGF
  she kills, with foreign films, the emptiness of day to day
 CG
  and i wait 'til the weekend comes
 FC
so i can clear this uselessness from my brain
 G
i count the days 'til she arrives
 FC
those precious minutes when she is mine
 GFAm
as we walk from my front door to her car, we're so close and alone
 GAm
but that will disappear in a room filled with the warmth
 G
of others', of others' company
 CGF
theres just too much company      
 CGF
  theres just too much company
 CGFC
  so i hide my wounded pride and stare off into the other cars
 GF
if i could just speak the words to tell her exactly how i feel
 CG
  count the ways that i might say it
 FC
but i know that none of them will work because
 GF
 she won't feel the same, we got this far
 AmGAmG
but i can't go through with it because the truth would hurt too much

it hurts too much, this hurts too much

**(figure out the timing for this solo, play while singing next lines)**
/=slide p=pull off h=hammer on ^=bend
D|----------0----2h3-2---0---0h2-0-------------------0-2-2h3p2-0----------0--|
A|-----------------------------------3-3p2h3--3p2h3---------------3--2h3-----|
E|-3/13-10-------------------------------------------------------------------|
D|------------------------------------0-2-3p2p0-3p2-0-2-3-2-3--2-3-2-3^-2-3-0|
A|-3p2--0--2/5---3p2--0--2-3/5-3-3p2-----------------------------------------|
E|---------------------------------------------------------------------------|
D|-2-3-2--0--2-0------------------0-2--3^------------------------------------|
A|----------------3--2-0--2-0--3---------------------------------------------|
E|---------------------------------------------------------------------------|


 CGF
  she goes back to the west coast to drink in the sunshine
 CGF
  and i'll stay here in these dead plains and try to make a seed grow
 CGFC
  and i would pray for rain if i thought that it would help


Am C F G
variations - click chord images
Transpose chords:
Tuning:
Cool service:
View: Size:
A  A  A
Rating:
Layout:
  • Currently 1.9/5 Stars.
  • 1
  • 2
  • 3
  • 4
  • 5
 
Accuracy:
  • Currently 2.1/5 Stars.
  • 1
  • 2
  • 3
  • 4
  • 5
 
click stars to rate
Chordie recommends:
Check out JamPlay.com for online video guitar lessons
Songbook:
Login to add this song to your songbook
Support the artist
Preview/buy this song
MSN Music
Why this non-profit ad?

 
login to add comments/video/corrections