Guitar Tabs, Chords and Lyrics


Pray For Plagues   Bring Me The Horizon


[]-------------------13h16-------------------------15h17h18-[]








[]-------------12h15-----------------------15h17h18---------[]








[]-------11h14---------------------14h16h18-----------------[]



[]-10h13-------------------13h15h16-------------------------[]



[]----------------------------------------------------------[]



[]----------------------------------------------------------[]



[]-18p15---18p15---17p14--17p14---[]



[]------15------15------14-----14-[]



[]--------------------------------[]



[]--------------------------------[]



[]--------------------------------[]



[]--------------------------------[]



[]------------13-17-13--------------------13-17-13---------[]



[]----------15--------15----------------15--------15-------[]



[]--------14------------14------------14------------14-----[]



[]------15----------------15--------15----------------15---[]



[]-12-17--------------------17-12-17--------------------17-[]



[]---------------------------------------------------------[]
[]------------12-16-12--------------------12-16-12---------[]
[]----------14--------14----------------14--------14-------[]
[]--------13------------13------------13------------13-----[]
[]------14----------------14--------14----------------14---[]
[]-11-16--------------------16-11-16--------------------16-[]
[]---------------------------------------------------------[]
[]------------13-17-13--------------------13-17-13---------[]
[]----------15--------15----------------15--------15-------[]
[]--------14------------14------------14------------14-----[]
[]------15----------------15--------15----------------15---[]
[]-12-17--------------------17-12-17--------------------17-[]
[]---------------------------------------------------------[]
[]------------13-17-13------------[]
[]----------14--------14----------[]
[]--------13------------13--------[]
[]------14----------------14------[]
[]-11-16--------------------16-11-[]
[]--------------------------------[]



Important: The song above is NOT stored on the Chordie server. The original song is hosted at www.guitaretab.com. Chordie works as a search engine and provides on-the-fly formatting. Chordie does not index songs against artists'/composers' will. To remove this song please click here.

This song is displayed as text-only. Transposing and tuning is only available for chordpro-songs.

Login - add to songbook

Rating click stars to rate

Layout
Accuracy

SHARE PAGE  




You need to log in to post comments