Spring

Brings

 EAGEGDEAG
1:---------------------------------------------------------------|
2:---------------------------------------------------------------|
3:------------------------------------7--------------------------|
4:--------------7--5---------------5--7---------------7----5-----|
5:--------------7--5---------------5--5---------------7----5-----|
6:-0-0-2-0-3-4--5--3--0-0-2-0-3-4--3-----0-0-2-0-3-4--5----3-----|


2. Gitarre

1:-------------------------------------------------3--3-t3-t3-t3-|
2:---------------------------------------------------------------|
3:---------------------------------------------------------------|
4:---------------------------------------------------------------|
5:---------------------------------------------------------------|
6:---------------------------------------------------------------|


1. Gitarre
 EGD
1:--------------------|
2:--------------------|
3:-----------------7--|
4:--------------5--7--|
5:--------------5--5--|
6:-0-0-2-0-3-4--3-----|


1. Strophe
(Akkorde wie in Intro)
 EAG
 Saach mir, häs du Energie?
 EGD
 Jläuv mir, mer sin fit wie nie.
 EAG
 Janz ejal, wat morje kütt,
 EGD
 mer jon keine Schritt zoröck.

 EAG
 Jungens, so wie mer vom Rhing
 EGD
 schlofe eetz beim Sonnesching.
 EAG
Mer han et Hätz om rächte Fleck,
 EGD
de mieste Zick, do sin mer jeck.
Refrain

 BEBE
 Spring üvver d'r Rhing - hüher als d'r Dom,
 BEAE
 mer han Energie - ston immer unger Strom.
 BEBE
 Krall die d'r Ball - loss en nit mieh loss,
 BEAE
 bring dat Ding noh Huus - ejal, wat et dich koss,

 BAEBAE
kumm un spring - üvver d'r Rhing.   
 BAEBA
Kumm un spring - üvver d'r Rhing. 

1. Gitarre
 EAGEGDEAG
1:------------------------------------------------------------------|
2:------------------------------------------------------------------|
3:------------------------------------7-----------------------------|
4:--------------7--5---------------5--7-----------------7-----5-----|
5:--------------7--5---------------5--5-----------------7-----5-----|
6:-0-0-2-0-3-4--5--3--0-0-2-0-3-4--3-----0-0-2-0-3-4----5-----3-----|


2. Gitarre

1:---------------------------------------3---3---t3--t3-t3-t3-t3-t3-|
2:------------------------------------------------------------------|
3:------------------------------------------------------------------|
4:------------------------------------------------------------------|
5:------------------------------------------------------------------|
6:------------------------------------------------------------------|


1. Gitarre
 EGD
1:--------------------|
2:--------------------|
3:-----------------7--|
4:--------------5--7--|
5:--------------5--5--|
6:-0-0-2-0-3-4--3-----|


2. Strophe
(Akkorde wie in Intro)
 EAG
 Saach mir, häs du Energie?
 EGD
 Jläuv mir, mer sin fit wie nie.
 EAG
Mer ston zesamme, alle Mann.
 EGD
 Jeder deit he, wat hä kann.
 EAG
Mer drieße op d'r Rest d'r Welt.
 EGD
Wä hät die nöchste Rund bestellt?
 EAG
 Janz ejal, wo mer och sin,
 EGD
die janze Welt, die litt am Rhing.

Refrain

 BEBE
 Spring üvver d'r Rhing - hüher als d'r Dom,
 BEAE
 mer han Energie - ston immer unger Strom.
 BEBE
 Krall die d'r Ball - loss en nit mieh loss,
 BEAE
 bring dat Ding noh Huus - ejal, wat et dich koss,

 BEBE
 Spring üvver d'r Rhing - hüher als d'r Dom,
 BEAE
 mer han Energie - ston immer unger Strom.
 BEBE
 Krall die d'r Ball - loss en nit mieh loss,
 BEAE
 bring dat Ding noh Huus - ejal, wat et dich koss,

Riff 1 A E H A E
kumm un spring - üvver d'r Rhing.
H A E H A E Solo
Kumm un spring - üvver d'r Rhing.

Riff 1

H A E H A E H A E H A E Solo
1:----------------------------------------------------------------|
2:-----------------10/12~-12-12~-----------------10/12~-12-12-12~-|
3:-7b8~-------7b8~----------------7b8~------7b8~------------------|
4:------9~-----------------------------9~-------------------------|
5:----------------------------------------------------------------|
6:----------------------------------------------------------------|


Solo

 BDEB
1:-----------------------------------9b10b9-----|
2:----9-12~----9-12~----9-12----9-12--------12~-|
3:-11-------11-------11------11-----------------|
4:----------------------------------------------|
5:----------------------------------------------|
6:----------------------------------------------|


 BDED#ED#EAB
1:-------------------------12~-11-12~-11-12~-------------|
2:----9-12~----9-12~----9--------------------10-12~-f12~-|
3:-11-------11-------11----------------------------------|
4:-------------------------------------------------------|
5:-------------------------------------------------------|
6:-------------------------------------------------------|


Refrain

 B
 Spring üvver d'r Rhing - hüher als d'r Dom,
 BA
 mer han Energie - ston immer unger Strom.
 B
 Krall die d'r Ball - loß en nit mieh loss,
 BA
 bring dat Ding noh Huus - ejal, wat et dich koss.

 BEBE
 Spring üvver d'r Rhing - hüher als d'r Dom,
 BEAE
 mer han Energie - ston immer unger Strom.
 BEBE
 Krall die d'r Ball - loss en nit mieh loss,
 BEAE
 bring dat Ding noh Huus - ejal, wat et dich koss,

 BAEBAE
kumm un spring - üvver d'r Rhing.   
 BAEBAE
Kumm un spring - üvver d'r Rhing.   
 BAEBAE
Kumm un spring - üvver d'r Rhing.   
H A E H A g# A g# A g# A g#
Kumm un spring - üvver d'r Rhing.
 B
 Spring!

         ------------------------------------------------------


Mehr BRINGS-Tabs auf brings-tabs.de.vu!

         ------------------------------------------------------				



A B D D# E G
variations - click chord images
Transpose chords:
Tuning:
Cool service:
View: Size:
A  A  A
Rating:
Layout:
  • Currently 4/5 Stars.
  • 1
  • 2
  • 3
  • 4
  • 5
 
Accuracy:
  • Currently 1/5 Stars.
  • 1
  • 2
  • 3
  • 4
  • 5
 
click stars to rate
Chordie recommends:
Learn to play songs at Jamplay.com with video guitar lessons
Songbook:
Login to add this song to your songbook
Support the artist
Preview/buy this song
MSN Music
Why this non-profit ad?

 
login to add comments/video/corrections