Guitar Tabs, Chords and Lyrics


Katharina   Brings









By: Alex Nast
Subject: TAB: Brings - Katharina

Explanations:

fl    = flaschol? tone (unfortunately i don't know the correct
                        spelling, but i hope you understand,
                        what i'm talking about)
14/16 = slide

b     = bend

\___/ = triole


Intro/Outro:

  cis               cis/A             cis               cis/A
|-----------------|-----------------|-----------------|-----------|
|-------4-5-4-----|-------4-5-4-----|-------4-5-4-----|-------4-5-|
|-----6-------6---|-----6-------6---|-----6-------6---|-----6-----|
|---6-----------6-|---6-----------6-|---6-----------6-|---6-------|
|-4---------------|-0---------------|-4---------------|-0---------|
|-----------------|-----------------|-----------------|-----------|

  cis               cis/A             cis               A
|-----------------|-----------------|-----------------|---fl12------|
|-------4-5-4-----|-------4-5-4-----|-------4-5-4-----|--------fl12-|
|-----6-------6---|-----6-------6---|-----6-------6---|-------------|
|---6-----------6-|---6-----------6-|---6-----------6-|-------------|
|-4---------------|-0---------------|-4---------------|-0-----------|
|-----------------|-----------------|-----------------|-------------|


Verse A:

  cis               cis/A             cis               cis/A
|-----------------|-----------------|-----------------|-----------|
|-------4-5-4-----|-------4-5-4-----|-------4-5-4-----|-------4-5-|
|-----6-------6---|-----6-------6---|-----6-------6---|-----6-----|
|---6-----------6-|---6-----------6-|---6-----------6-|---6-------|
|-4---------------|-0---------------|-4---------------|-0---------|
|-----------------|-----------------|-----------------|-----------|


Verse B:

  B                 cis               E                 A
|-----------------|-----------------|-----------------|-----------|
|-----------------|-------4-5-4-----|-----------------|-------2-2-|
|-------8-9-8-----|-----6-------6---|-------1-2-1-----|-----2---2-|
|-----9-------9---|---6-----------6-|-----2-------2---|---2-------|
|---9-----------9-|-4---------------|---2-----------2-|-0---------|
|-7---------------|-----------------|-0---------------|-----------|


Chorus:

only chords: A E B5 - A E B5 - fis B5 A - A E B5

first time clean, second + trird time lead

Solo:

  B(last part of chorus) fis              A    cis
|----------------------|----------------|----|-----------------------12-|
|----------------------|-17b19-17b19b17-|----|-15/17-16-14--------14----|
|-------14-16b18b16-14-|----------------|-14-|-------------13--13-------|
|-14/16----------------|----------------|----|--------------------------|
|----------------------|----------------|----|--------------------------|
|----------------------|----------------|----|--------------------------|

  E                   B5                     fis             A
|-19b21-19b21b19-19-|----------------------|----------------|------------|
|-------------------|-17-16----------------|-17b19-17b19b17b|19-17b19b17-|
|-------------------|-------16-16-15-------|----------------|------------|
|-------------------|----------------16----|----------------|------------|
|-------------------|-------------------14-|----------------|------------|
|-------------------|----------------------|----------------|------------|
                      \______/ \______/

  cis        E                B5
|----------|-19b21-19b21-19-|-21b23-21b23-21-19-|
|-14-14-17-|----------------|-------------------|
|----------|----------------|-------------------|
|----------|----------------|-------------------|
|----------|----------------|-------------------|
|----------|----------------|-------------------|


Order: Intro
       Verse A 2x
       Verse B 2x
       Chorus
       Verse A 2x
       Verse B 2x
       Chorus
       Solo
       Chorus


Important: The song above is NOT stored on the Chordie server. The original song is hosted at www.guitaretab.com. Chordie works as a search engine and provides on-the-fly formatting. Chordie does not index songs against artists'/composers' will. To remove this song please click here.

This song is displayed as text-only. Transposing and tuning is only available for chordpro-songs.

Login - add to songbook

Rating click stars to rate

Layout
Accuracy

SHARE PAGE  




You need to log in to post comments