Guitar Tabs, Chords and Lyrics


Koot Oder Lang  Brings

ob [C]rich oder [G]ärm, ding [B]Bud is wärm.

C G H e
Ob koot oder lang, met Hätz oder bang,
ob [C]rich oder [G]ärm, ding [B]Bud is wärm.


1. Strophe

e D C H
Du kenns dich us, du kenns die Lück, du küss hier her un du weiss wä es wä,
e
bes jeden Daach neu informiert, et is jot, wenn mer sich interessiert.
Du weiss jenau, vun wem die Frau jeden Ovend d'r Nohbor be[C]söck.
e D C H e
Se kumme all in ding Trinkhall un se bringe dann uch noch jet mit.

Se [D]kaufe nit nur Kippe, se [G]suffe nit nur Bier.
H e D C
E Stück vun jedem Lääve, dat losse se bei dir.
[D]eine hät jewunne, dä [G]andre söck sing Frau
un [B]wo die jrad steck, dat weiss du janz jenau.


Refrain

C G H e
Ob koot oder lang, met Hätz oder bang,
ob [C]rich oder [G]ärm, ding [B]Bud is wärm.
C G e D C H e
Ob Kölsche oder fremd, ob Blaumann oder Hemp,
C G e D C H
ob jrön wie die Schmier, se kumme all zu dir.


2. Strophe

e
Un dann um zwölf, vör'm neue Daach,
mähste zo, denn uch [D]du [C]bruchs jet [B]Schlof.
e
Denn morje fröh, su jäje sechs, steihst du dann widder parat.

Der [D]neuste Film jebrannt, su[G]jar op DVD
H e
un us Istambul en Trikot vum FC.
[D]Selvs der ahle Freud wor ne [G]Stümper jäje dich,
denn [B]du loorst dä Lück nur eimol in't Jeseech.


Refrain

C G H e
Ob koot oder lang, met Hätz oder bang,
ob [C]rich oder [G]ärm, ding [B]Bud is wärm.
C G e D C H e
Ob Kölsche oder fremd, ob Blaumann oder Hemp,
C G e D C H Solo
ob jrön wie die Schmier, se kumme all zu dir.


Solo

e H C
1:------------------------------------------------------------------|
2:--------------------------------------------------------10-12b13--|
3:---9-11b12-9----9-11b12-9----9-11b12-11-9-b12-11/9-8--9-----------|
4:-9------------9------------9--------------------------------------|
5:------------------------------------------------------------------|
6:------------------------------------------------------------------|


e H e
1:-12/10--------------------------------|
2:-------13-12--12/10-------10----------|
3:--------------------12-11----12-11-9--|
4:--------------------------------------|
5:--------------------------------------|
6:--------------------------------------|



Se [D]kaufe nit nur Kippe, se [G]suffe nit nur Bier.
H e D C
E Stück vun jedem Lääve, dat losse se bei dir.
[D]eine hät jewunne, dä [G]andre söck sing Frau
un [B]wo die jrad steck, dat weiss du janz jenau.


Refrain

C G H e
Ob koot oder lang, met Hätz oder bang,
ob [C]rich oder [G]ärm, ding [B]Bud is wärm.
C G e D C H e
Ob Kölsche oder fremd, ob Blaumann oder Hemp,
C G e D C H
ob jrön wie die Schmier, se kumme all zu dir.

C G e D C H e
Ob Kölsche oder fremd, ob Blaumann oder Hemp,
C G e D C H C G H e C G H e
ob jrön wie die Schmier, se kumme all zu dir, zu dir.


         ------------------------------------------------------



Mehr BRINGS-Tabs auf brings-tabs.de.vu!


         ------------------------------------------------------				


Important: The song above is NOT stored on the Chordie server. The original song is hosted at www.guitaretab.com. Chordie works as a search engine and provides on-the-fly formatting. Chordie does not index songs against artists'/composers' will. To remove this song please click here.

Text color:
Chord color:
Chord grids: 
Font size:    
Page size: 

B C D G
variations - click chord images

Login - add to songbook

Transpose chords

Tuning

Rating click stars to rate

Layout
Accuracy

SHARE PAGE  




You need to log in to post comments