Joe Dallesandro

Briskeby

-----------------------------------------------------------------

-----------------------------------------------------------------
e|-0-2-3-5-7/10--0-2-3-5-8/7-3-|
B|-----------------------------|
G|-----------------------------|
D|-----------------------------|
A|-----------------------------|
E|-----------------------------|

 GDG
e|-3---3---3---3---3---|-3---3---3---3---3---|-3---3---3---3---3----|
B|--3---3---3---3---3--|--2---2---2---2---2--|--3---3---3---3---3---|
G|---0---0---0---0---0-|---3---3---3---3---3-|---0---0---0---0---0--|
D|---------------------|---------------------|----------------------|
A|---------------------|---------------------|----------------------|
E|---------------------|---------------------|----------------------|


Verse 1:
 GD
 Into the night on heels I stumble
 EmC
 Like a star about to shoot
 GD
 Catch me down the avenue like
 EmC
 A dandylion parachute

 GD
 Release the hounds, chase my tail and
 EmC
 Treat me like renegade
 GD
 I'm as patient as a chain-reaction
 EmC
 But I am not afraid

Chorus:
 G
 We're gonna leave all the troubles behind by the turnpike
 D
 Going away, you know what it feels like
 EmC
 I'll never let you go, Joe Dallesandro

 G
 The rocks in my shoes won't dig into my feet
 D
 Free of the promises that I can't keep
 EmC
 I'll never let you go, Joe Dallesandro

Post chorus 1:
 Em
 No matter what you say
 DC
 I can't shake off this fling

Verse 2:
 GD
 Into the night I paint the city
 EmC
 In the colour of my eyeshade
 GD
 Walking with a papertiger
 EmC
 I am not afraid

(repeat chorus + post chorus 1)

Post chorus 2:
 Em
 No matter what you do
 DC
 I can't shake off this fling

Interlude:

G - D - Em - C (with outro melody)

| x2 (fade on last time to end)
e|-------------------|----------------------|
B|-12-15-10-15-8--10-|-12-15-10-15-12-13-15-|
G|-------------------|----------------------|
D|-------------------|----------------------|
A|-------------------|----------------------|
E|-------------------|----------------------|


Outro:
 GD
 The number of tears you cry equals the number of tears you dry
 EmC
 I'll never let you go, Joe Dallesandro

(repeat Outro x 2, fade on the last time with the outro melody to end)

C D Em G
variations - click chord images
Transpose chords:
Tuning:
Cool service:
View: Size:
A  A  A
Rating:
Layout:
  • Currently 3/5 Stars.
  • 1
  • 2
  • 3
  • 4
  • 5
 
Accuracy:
  • Currently 2.9/5 Stars.
  • 1
  • 2
  • 3
  • 4
  • 5
 
click stars to rate
Chordie recommends:
Get acoustic guitar lessons and electric guitar lessons at JamPlay.com
Songbook:
Login to add this song to your songbook
Support the artist
Preview/buy this song
MSN Music
Why this non-profit ad?

 
login to add comments/video/corrections