"yes"; ?> I Aint No Miracle Worker by Brogues - guitar chords, guitar tabs and lyrics - chordie

I Aint No Miracle Worker

Brogues

-----------------------------------------------------------

-----------------------------------------------------------

 fig.1
Repeating riff  
Electric guitar w/fuzz
 Cm
e||---------------------------||
b||---------------------------||
g||*----------0----(0)-------*||
d||*-------------------3--1--*||
a||--3----(3)-----------------||
E||---------------------------||

 1234
        ]      ]      ]      ]          
 fig.2fig.3afig.3bfig.4

 GGsusD#D#susGCm/Cmsus/Cm/Cmsus
e||-----7---8-7--||------3-4-3-||--------3----||------------------||
b||-------8------||----4-------||------3------||---4-6-4----4-6-4-||
g||-s/7----------||--3---------||----4-----4--||--5--------5------||
d||--------------||------------||--5----------||-5--------5-------||
a||--------------||------------||-------------||------------------||
E||--------------||------------||-------------||------------------||


 fig.1 4X
 Intro:  

 lead guitar continues w/ fig.1
            Cm  
Don't ask me to move a mountain
G (fig.2)
Don't ask me to swim the sea
 Cm
        Don't think that I'm a tower of strength
 fig.3afig.3b
                D#       G  
Don't lean too much on me
 Cm
        When lookin' to the future
G (fig.2)
Aw, don't build your dreams too high
 Cm
        I beg you to remember
D# G /////// N.C.
I'm just an ordinary guy

Chorus:
 fig.3a
        N.C.               D#  
I ain't no miracle worker
 fig.4
                             Cm  
I do the best that I can
 fig.3a
                           D#  
I ain't no miracle worker
G //////// N.C.
 lead guitar fig.2
Lord, I ain't no miracle man

 fig.1 2X

And I don't have a fortune
You know I sweat for each dime I make
But I'm always out there just lookin'
To get that lucky break
Every day I keep on tryin'
To do my best for you
And if tryin' just ain't enough, babe
Well tell me what would you have me do

Chorus:

Guitar Break:
e|-----------------------8--|--8-----------8--------|
b|--------------------8-(8)-|----11-----------------|
g|------8h10p8-10b(12)------|-------10b(12)—10b--8--|
d|-s/10---------------------|-----------------------|
a|--------------------------|-----------------------|
E|--------------------------|-----------------------|
e|--------------8-----------------------|
b|------------8---10--8-----------------|
g|-10-10b(12)-----------10b-r-8h10p8----|
d|-----------------------------------10-|
a|--------------------------------------|
E|--------------------------------------|
e|------11-13-11—13b(15)r13-11h13p11-------|-----------------------|
b|-s/13------------------------------13-11-|------13---------------|
g|-----------------------------------------|-s/12----10h12p10-8----|
d|-----------------------------------------|--------------------10-|
a|-----------------------------------------|-----------------------|
E|-----------------------------------------|-----------------------|
e|---------|
b|------8--|
g|------8--|

 2X
d|-10--10--| opening riff resumes  
a|-10------|
E|---------|


Ask me to be tender
Ask me to be true
Ask me for all the love I have
And girl I'll give it all to you
But girl I just can't offer
No storybook romance
If that's what you're lookin' for, babe
I tell ya, we just don't have a chance

Chorus:

Outro:
 Cm
        Baby, what I am
 Cm
        No, No, I ain't no miracle man
 Cm
        Aw, I ain't no miracle man
 Cm
        No, No, I ain't no miracle man
 Cm
        I'm just an ordinary man, no (fade out)
 Cm
        I'm just an ordinary man, no

A garage classic by grainofsand


Cm D# G Gsus
variations - click chord images
Transpose chords:
Tuning:
Cool service:
View: Size:
A  A  A
Rating:
Layout:
  • Currently 3.4/5 Stars.
  • 1
  • 2
  • 3
  • 4
  • 5
 
Accuracy:
  • Currently 2.3/5 Stars.
  • 1
  • 2
  • 3
  • 4
  • 5
 
click stars to rate
Chordie recommends:
Learn to play songs at Jamplay.com with video guitar lessons
Songbook:
Login to add this song to your songbook
Support the artist
Preview/buy this song
MSN Music
Why this non-profit ad?

 
login to add comments/video/corrections