Almost Crimes

Broken Social Scene

e|---------------------------------------------------------------------|

B|-------0-------0-------0-------0-------0-------0-------0-------0-----|
G|-------4-------4-------4-------4-------4-------4-------4-------4-----|
D|---5-5---5-5-5---5-5-5---5-5-5---5-4-4---4-4-4---4-4-4---4-4-4---4---|
A|---------------------------------------------------------------------|
E|---------------------------------------------------------------------|
e|-----------------------------------------------------|
B|---------12----------12----------12----------12------|
G|---12-12----12-12-12----12-12-12----12-12-12----12---|
D|-----------------------------------------------------|
A|-----------------------------------------------------|
E|-----------------------------------------------------|
e|-----------------------------------------------------|
B|---------12----------12----------12----------12------|
G|---11-11----11-11-11----11-11-11----11-11-11----11---|
D|-----------------------------------------------------|
A|-----------------------------------------------------|
E|-----------------------------------------------------|
---------------------------------------------------------------------------
---------
----------------
 GG/Gb
 You're like a messiah, pal
 GG/Gb
 Little kingdoms in your chest

 CBm
told you we'd make it, on for another
 CBm
told you we'd make it, on for all night (Put on all our best)

 GG/Gb
 This is how they will live on
 GG/Gb
 We'd looked better if we win

 CBm
told you we'd make it on for another (Oh I've been getting calls now out here)
 CBm
told you we'd make it on for another (On their mouths and chest)

First Bridge:
---------------

 CEDCEDCEDC
 Faug/G       C                         

Riff x2

Second set of verses:
----------------------

 GG/Gb
 Help this love before you leave
 GG/Gb
 Demonstrations lack caress

 CBm
want you to take you, call on for life (Thank you for creating souls...)
 CBm
The longer we make this, got no way there (Children sleep with dicks)

 GG/Gb
 Your call keeps me up all night
 GG/Gb
 Complication sees your best

 CBm
 Told you, I want it here longer for you (I've been getting calls now out here)
 CBm
waited, I waited, it's late night, she's waiting at home (On their mouths and chest)

Second bridge:
---------------

 CEDCED
 CED
 We've got love and hate it's the only way
 CED
 We've got love and hate it's the only way

Rhythm for Solo (Not going to tab out the solo, it's in C major though if you want to improvise it):
----------------

 CEDCEDCEDC
 Faug/G                              

Outro:
--------

C G G/Gb G G/Gb Faug/G
I feel like it's almost crimes
C G G/Gb G G/Gb Faug/G
I feel like it's almost crimes
C G G/Gb G G/Gb Faug/G
I feel like it's almost crimes
 C
feel like it's almost time

So that's it, great song, espcially live, hope I could help y'all.


Bm C D E G
variations - click chord images
Transpose chords:
Tuning:
Cool service:
View: Size:
A  A  A
Rating:
Layout:
  • Currently 2.8/5 Stars.
  • 1
  • 2
  • 3
  • 4
  • 5
 
Accuracy:
  • Currently 2.7/5 Stars.
  • 1
  • 2
  • 3
  • 4
  • 5
 
click stars to rate
Chordie recommends:
Learn how to play guitar at JamPlay.com
Songbook:
Login to add this song to your songbook
Support the artist
Preview/buy this song
MSN Music
Why this non-profit ad?

 
login to add comments/video/corrections