Guitar Tabs, Chords and Lyrics


A Montreal Song  Bruce Cockburn



 ||-5-----5-5-3-2---|-------5-5-3-2---|-----------------|

||-3-----3-3-3-3-2-|-------2-2-2-2-2-|---------3---3---|
||-2-------2-2---2-|---------2-2---0-|---------0---0---|
||-0-------0-----2-|---------2-----0-|---------0---0---|
||-0-------------0-|---------------2-|---------0h2-0h2-|
||-0---------------|-----------------|-----------------|
   [Em7/B], . , . , . , .   [F6], . , . , . , .   [Em7], . , . , . , .
 |-----------5-----|---------5-5-----|-------3-3/5-1/2-|
 |-------3-3-3-----|-------3-3-3-----|---------3/5-1/2-|
 |-------0-0-0-----|-------5-5-5-----|-----------------|
 |---------0-------|-3-------3-------|-2---------------|
 |---------2-----0-|-3-------------0-|-2---------------|
 |---------------0-|-3-------------0-|-2---------------|


D5' D5'
, . , . , . , . , . , . , . , .
 |-----------------|------------------||
 |-3---------------|-------------3----||
 |-2---------2h4-2-|---------2---4p2-*||
 |-0-----------0-0-|-----0---0-0-0---*||
 |-----------------|------------------||
 |-----------------|------------------||


SOLO:
(lead in) D5'
, . , . , . , . , . , . , . , .

 |-------------------------||-------------------------|
 |-----------------------3-||----------3--3--3--------|
 |-------------------4p2---||----------2--2--2--------|
 |-----------2/4-----------||-0-----------0--------2--|
 |-------------------------||-0-----------------------|
 |-------------------------||-0-----------------------|



   [A],  .  ,  .  ,  .  ,  .    [Em7/B],  .  ,  .  ,  .  ,  .
 |-------------------------|-------------3-----3-----|
 |----------2--------------|-------------3-----3-----|
 |----------2--------------|-------------0-----0-----|
 |-------------4p2-0-2h4---|----------0--------------|
 |-----------------------2-|-------------------2-----|
 |-------------------------|-------------------------|


   [Em7/B], . , . , . , .   [F6], . , . , . , .   [Em7], . , . ,  .  , .
 |-----------------|-----------------|---------3-3---3---|
 |-----------3-----|---------3-3-----|---------3-3-3-3---|
 |---------0-0-----|---------5-5-----|-------2-2-2-2-2---|
 |-------0---------|-3-----3-3-------|-2-----2-----------|
 |---------------0-|-3-------------0-|-2-----------------|
 |---------------0-|-3-------------0-|-2-----------------|


D5' D5'
, . , . , . , . , . , . , . , .
 |-2---------------|-----------------||
 |-3-------------3-|-------------3---||
 |-2---------2h4---|-------------4p2-||
 |-0-----------0---|-----------0-0---||
 |-----------------|-----------------||
 |-----------------|-----------------||


CHORDS:
D5 000235
D5' 00023x
A x02225
Em7 222x33
Em7/B x2003x
Em7/D 02003x
Em7+2/D 020032
  [F6]         [333535]                          

Important: The song above is NOT stored on the Chordie server. The original song is hosted at www.guitaretab.com. Chordie works as a search engine and provides on-the-fly formatting. Chordie does not index songs against artists'/composers' will. To remove this song please click here.

Text color:
Chord color:
Chord grids: 
Font size:    
Page size: 

A Em7 Em7/B F6
variations - click chord images

Login - add to songbook

Transpose chords

Tuning

Rating click stars to rate

Layout
Accuracy

SHARE PAGE  




You need to log in to post comments