Guitar Tabs, Chords and Lyrics


Fire   Bruce Dickinson



intro and basic riff
e--------------------------------------|
B--------------------------------------|
G--------------------------------------|
D--------2------------------5-4-0------|
A-2-4--2-0--4-------2-4--2--3-2-2------|
E-0-2--0----2-------0-2--0-------------|

verse
e---------------------------------------------------|
B---------------------------------------------------|
G---------------------------------------------------|
D-2-4---------------2-4----------------5-5-5-5-4-2--|
A-0-2---------------0-2----------------3-3-3-3-2-0--|
E---------------------------------------------------|

intro riff again

bridge 	before 	chorus 	riff
e------------------------- ---------|
B------------------------- ---------|
G-6--6--6--6-x------------ ---------|
D-6--6--6--6-x-5-5---5~--- ---------|
A-4--4--4--4-x-5-5---3~--- ---2--4--|
E--------------------3~---- --0--2--|

chorus riff
e---------------------------------------------------|
B---------------------------------------------------|
G---------------------------------------------------|
D-5-5-4-5-5-4-4-2---------------5-5-4-5-5-2-2-4-----|
A-3-3-2-3-3-2-2-0---4-4--4------3-3-2-3-3-0-0-2-----|
E-------------------2-2--2--------------------------|

e---------------------------------------------------|
B---------------------------------------------------|
G---------------------------------------------------|
D-5-5-4-5-5-4-4-2-----------------------------------|
A-3-3-2-3-3-2-2-0---4-4--4-5-5-5-5-5-2-2-4----------|
E-------------------2-2--2-3-3-3-3-3-0-0-2----------|

bridge before solo
e-------------|
B-------------|
G-------------|
D--4-2--------|
A--2-0-4------|


Important: The song above is NOT stored on the Chordie server. The original song is hosted at www.guitaretab.com. Chordie works as a search engine and provides on-the-fly formatting. Chordie does not index songs against artists'/composers' will. To remove this song please click here.

This song is displayed as text-only. Transposing and tuning is only available for chordpro-songs.

Login - add to songbook

Rating click stars to rate

Layout
Accuracy

SHARE PAGE  




You need to log in to post comments