Chordie logo


Book Of Thel   Bruce Dickinson



I used the previously existing tab and put it into drop D tuning so try this out and
see if it sounds any better.

if you have suggestions or comments please email me at bgthomas121@hotmail.com

                              Book Of Thel Drop D
Intro-
G||---10-------10--------10-----12--------10--------12-----14-------14-------|
D||-o----12-------12--------12-----12--------12--------12-----12-------12----|
A||-o-------12-------12---------------12--------12---------------12-------12-|
E||--------------------------------------------------------------------------|

G  --14-----13--------13-------13--------||
D  -----12-----12--------12-------12---o-||  Repeat a couple of times
A  ---------------12--------12---------o-||  under guitar solo and stuff...
E  --------------------------------------||

e|------------------+--------|
B|------------------|--------|
G|------------------|--------|
D|--0-0-0-3--5--6---|--0--0--|
A|--0-0-0-3--5--6---|--0--0--|
D|--0-0-0-3--5--6---|--0--0--|

                                |1.       |2.
e|------------------------------+---------+---------|
B|------------------------------|---------|---------|
G|------------------------------|---------|--8---7--|
D|--0--0-0-3--5--6--0--3--0--5--|--5---7--|--6---5--|
A|--0--0-0-3--5--6--0--3--0--5--|--3---5--|---------|
D|--0--0-0-3--5--6--0--3--0--5--|---------|---------|
The mark is on you now, the furnace sealed inside your head...

e|-------------------------------------+------------|
B|-------------------------------------|------------|
G|--9--9-9--9--9-9--10-1010-12--12-12--|--9----7-5--|
D|--7--7-7--7--7-7--8--8-8--10--10-10--|--7----5-3--|
A|-------------------------------------|------------|
E|-------------------------------------+------------|
Stand inside the temple, as the book thel is opening...

e|-------------------------------------------------------|
B|-------------------------------------------------------|
G|-------------------------------------------------------|
D|--0-0-0-0-0--3-3-3-3-3-3/8-8-8-8-8-8-8--5---3---2---0--|
A|--0-0-0-0-0--3-3-3-3-3-3-8-8-8-8-8-8-8--5---3---2---0--|
D|--0-0-0-0-0--3-3-3-3-3-3/8-8-8-8-8-8-8--5---3---2---0--|
Come the dawning of the dead...

e|-----------------------------|
B|-----------------------------|
G|-----------------------------|
D|-----------------------------|
A|--0--0-0-1p0-0-1p0-0-3--3-0--|
E|-----------------------------|


Important: The song above is NOT stored on the Chordie server. The original song is hosted at www.guitaretab.com. Chordie works as a search engine and provides on-the-fly formatting. Chordie does not index songs against artists/composers will. To remove this song please click here.

This song is displayed as text-only. Transposing and tuning is only available for chordpro-songs.

Login - add to songbook

Rating click stars to rate

Layout
Accuracy

SHARE PAGE  




You need to log in to post comments