Guitar Tabs, Chords and Lyrics


The Last Carnival  Bruce Springsteen

-----------------------------------------0---------------|


1-0-----1-0-----1-0-----1-0--------1-3-3---3-1----3-1-0--|


----0-------0-------0-------0----0--------------0--------|

------0-------0-------0-------0--------------------------|
--------------------------------3------------------------|
3-------3-------3-------3----------------------3---------|
[Gsus4]Sun   [G]down, [Gsus4]sun    [G]down
They're [Gsus4]taking [G]all the [Gsus4]tents [G]down
[C] Where have you gone my handsome [G]Bi[Gsus4]lly?  [G]
[Gsus4]Sun   [G]down, [Gsus4]sun   [G]down
The [Gsus4]carnival [G]trains' [Gsus4]leavin' [G]town
[C] Where are you now my darling [G]Bi[Gsus4]lly?  [G]
verse:
------2------2-------0----------|
----3------3-------3-------3-1--|
--2------2-------0-------0------|
0------0------------------------|
---------------2-------3--------|
--------------------------------|


[D] We won't be dancing together [G/B]on the high [C]wire
[D] Facing the lions with you at my [G/B]side any[C]more
[D] We won't be breathing the [G/B]smoke and the [C]fire
On a [Gsus4]midway[G]

[D] Hangin' from the trapeze
My wrists [G/B]waitin' for your [C]wrists
[D] Two daredevils high up[G/B]on the wall of [C]death
[D] You throwin' the knife that lands [G/B]inches from my [C]heart
[Gsus4]Sun do[G]wn
bridge:
------0------0-------2-------2---------------------------------|
----0------0-------3-------3------3-1-----3-1-----3-1-----3-1--|
--0------0-------2-------2------0-------0-------0-------0------|
---------------0-------0---------------------------------------|
------------------------------3---------------3----------------|
0-------0-----------------------------3---------------3--------|


[Em]Moon rise, moon rise
The [D]light that was in your eyes has [C]gone [G]away[C]  [G]
[Em]Daybreak, daybreak
The [D]thing in you that made me ache has[C] gone [G]to s[C]ta[G]y

[D] We'll be riding the train without [G/B]you to[C]night
The [D]train that keeps on movin'
Its black smoke [G/B]scorching the evening [C]sky
[D] A million stars shining above us like e[G/B]very soul livin' and d[C]ead
Has been g[D]athered together by a God to
sing a [G/B]hymn over your [C]bones
[Gsus4]Sun do[G]wn, [Gsus4]sun do[G]wn
[Gsus4]Empty [G]are the [Gsus4]fairgr[G]ounds
[C] Where are you now my handsome [G]Bi[Gsus4]lly?  [G]

Important: The song above is NOT stored on the Chordie server. The original song is hosted at www.guitaretab.com. Chordie works as a search engine and provides on-the-fly formatting. Chordie does not index songs against artists'/composers' will. To remove this song please click here.

Text color:
Chord color:
Chord grids: 
Font size:    
Page size: 

C D Em G G/B Gsus4
variations - click chord images

Login - add to songbook

Transpose chords

Tuning

Rating click stars to rate

Layout
Accuracy

SHARE PAGE  




You need to log in to post comments