Guitar Tabs, Chords and Lyrics


The Rising  Bruce Springsteen

[Eb]Can't see nothin' in fr[Bb]ont of me   C[Eb]an't see nothin' coming [Bb]up behind
I make my way through this darkness I can't feel nothing but this chain that binds me
Lost track of how far I've gone How far I've gone, how high I've climbed
On my back's a sixty pound stone On my shoulder a half mile of line

Come on up for the rising Come on up, lay your hands in mine
Come on up for the rising Come on up for the rising tonight

Left the house this morning Bells ringing filled the air
Wearin' the cross of my calling On wheels of fire I come rollin' down here

Come on up for the rising Come on up, lay your hands in mine
Come on up for the rising Come on up for the rising tonight

L[F]a, La, [Bb]La,La,La,La, [Eb]La, La, La, La, L[F]a, La, [Bb]La,La,La,La, [Eb]La,
La, La   L[F]a, La, [Bb]La,La,La,La, [Eb]La, La,  La, La,  L[F]a, La, [Bb]La,La,La,La, [Gm]La

Solo Eb F Eb F
E|------------------------8-10-8-6--------------8----||
B|-----8------------------------------8-6------------||
G|---------------------------------------------------||
D|---------------------------------------------------||
A|---------------------------------------------------||
E|---------------------------------------------------||
E|-----6h8p6h8p6h8p6h8p6----------8-10-8-6-------------10-8--||
B|---------------------------8-----------------8-6-----------||
G|-----------------------------------------------------------||
D|-----------------------------------------------------------||
A|-----------------------------------------------------------||
E|-----------------------------------------------------------||



Sp[F]irits above and beh[Gm]ind me     F[Eb]aces gone, black eyes[Bb] burn[F]in' bright
M[F]ay their precious blood b[Gm]ind me Lord, as [Eb]I stand before your [Bb]fiery l[F]ight
[F]La, La, La,La,La,La, [Eb]La, La, La, La, La, L[F]a, La,La,La,La, L[Eb]a,
La, La   L[F]a, La, La,La,La,La, [Eb]La, La,  La, La,  L[F]a, La, La,La,La,La, [Eb]La
[Eb]I see you Mary in the g[Bb]arden   In the g[Eb]arden of a thousand s[Bb]ighs
There's holy pictures of our children Dancin' in a sky filled with light
May I feel your arms around me May I feel your blood mix with mine
A dream of life comes to me Like a catfish dancin' on the end of my line
S[Eb]ky of blackness and s[Bb]orrow (a dream of life)
Sky of love, sky of tears (a dream of life)
Sky of glory and sadness (a dream of life)
Sky of mercy, sky of fear (a dream of life)
Sky of memory and shadow (a dream of life)
Your burnin' wind fills my arms tonight
Sky of longing and emptiness (a dream of life)
Sky of fullness, sky of blessed life

Come on up for the rising Come on up, lay your hands in mine
Come on up for the rising Come on up for the rising tonight
2x  L[F]a, La, La,       [Eb]

Plz Rate and comment

Important: The song above is NOT stored on the Chordie server. The original song is hosted at www.guitaretab.com. Chordie works as a search engine and provides on-the-fly formatting. Chordie does not index songs against artists'/composers' will. To remove this song please click here.

Text color:
Chord color:
Chord grids: 
Font size:    
Page size: 

Bb Eb F Gm
variations - click chord images

Login - add to songbook

Transpose chords

Tuning

Rating click stars to rate

Layout
Accuracy

SHARE PAGE  




You need to log in to post comments

rchristi (report)

If you put a capo on the third fret, the chords become C, G, and D... and it sounds more in-key.