Guitar Tabs, Chords and Lyrics


Land Of Hope And Dreams  Bruce Springsteen

||------------------------|------------------------|-----------------------|-------------------------||


||------3-------1----0----|-----0-------1----0-----|-----1-------0----1----|-----1-------0-----------||


||*----------0------------|--0-------0----------0--|----------0------------|--0-------0-------2--0--*||

||*-----------------------|------------------------|-----------------------|------------------------*||
||------------------------|------------------------|--3--------------------|-------------------------||
||---3--------------------|------------------------|-----------------------|-------------------------||
Grab your [G]ticket and your suitcase, thunder's [C]rollin' down the track
You don't[G] know where you're goin', now, but you know you[Em] won't be back
Well, [D]darlin' if you're weary, put your [C]head upon my chest
We'll [D]take what we can carry and [C]we'll leave the [D]rest
Well, [G]big wheels roll through fields where sunlight [C]streams [Em]
Well, [C]meet me in a [D]land of hope and dreams [G]    [C]    [G]    [C]
[G]Well, I will provide for you and [C]I'll stand by your side
You'll [G]need a good companion, now, for [Em]this part of the ride
Well, [D]leave behind your sorrows, let [C]this day be the last
Well, [D]tomorrow there'll be sunshine and [C]all this darkness [D]past
Well, [G]big wheels roll through fields where sunlight [C]streams [Em]
Well, [C]meet me in a [D]land of hope and dreams [G]    [C]    [G]    [C]
Well, [Em]this train, carries saints and sinners
[D]This train, carries losers and winners
[G]This train, carries whores and gamblers
[C]This train, carries lost souls
[Em]This train, dreams will not be thwarted
[D]This train faith will be rewarded
[G]This train, hear the steel wheels singin'
[C]This train, bells of freedom ringin'
| G | G | C | C | G | G | C | C | G | G | C | C | G | G | C | C |
(Sax solo)

Well, [Em]this train, carries saints and sinners
[D]This train, carries losers and winners
[G]This train, carries whores and gamblers
[C]This train, carries lost souls
[Em]This train, carries broken hearted
[D]This train, thieves and sweet souls departed
[G]This train, carries fools carries kings yeah
[C]All aboard
I say [Em]this rain, dreams will not be thwarted
[D]This train, faith will be rewarded
[G]This train, hear the steel wheels singin'
[C]This train, bells of freedom ringin'

| G | G | C | C | G | G | C | C |

Well, [Em]this train, carries saints and sinners
[D]This train, carries losers and winners
[G]This train, carries whores and gamblers
[C]This train, carries lost souls
I say [Em]this train, carries broken hearted
[D]This train, thieves and sweet souls departed
[G]This train, carries fools carries kings yeah
[C]This train, all aboard
I say [Em]this rain, dreams will not be thwarted
[D]This train, faith will be rewarded
[G]This train, hear the steel wheels singin'
[C]This train, bells of freedom ringin'

| G | G | C | C | G | G | C | C | G | G | C | C | G | G | C | C |
| G | G | C | C | G | G | C | C | G | G | C | C | G | G | C | C | G

I say, this [Em]train
Come on this [D]train
Come on this [G]train
[C] Let me see your hands
Oh, this [Em]train
Come on this [D]train
Come on this [G]train

C .....

Come on, come on, come on, come on

This train


The mandolin parts

capo @ the third fret

First two bars

e –666-888---------6---8----10-------666---888--------6-----8----6-|
B -666-666---------6---6-----6-------666---666--------6-----6----6-|
G –777-777---------7---7-----7-------777---777--------7-----7----7-|
D -----------------------------------------------------------------|
A -----------------------------------------------------------------|
E -----------------------------------------------------------------|


Second two bars

e –11 11-11----10-10-10---8-8-8----10-10-10-----11-|
B--8---8--8-----8--8--8---8-8-8-----8--8--8------8-|
G--8---8-8------8--8--8---8-8-8-----8--8--8------8-|
D--------------------------------------------------|
A--------------------------------------------------|
E--------------------------------------------------|
e--11-11-11----10-10-10-----8-8-8----10-10-10----8-|
B--8---8--8-----8--8--8-----8-8-8-----8--8--8----8-|
G--8---8--8-----8--8--8-----8-8-8-----8--8--8----8-|
D--------------------------------------------------|
A--------------------------------------------------|
E--------------------------------------------------|				


Important: The song above is NOT stored on the Chordie server. The original song is hosted at www.guitaretab.com. Chordie works as a search engine and provides on-the-fly formatting. Chordie does not index songs against artists'/composers' will. To remove this song please click here.

Text color:
Chord color:
Chord grids: 
Font size:    
Page size: 

C D Em G
variations - click chord images

Login - add to songbook

Transpose chords

Tuning

Rating click stars to rate

Layout
Accuracy

SHARE PAGE  




You need to log in to post comments