Guitar Tabs, Chords and Lyrics


out  Bruce Springsteen

--0---1--1----0---0--0------1--1-1-----------------------------------------------------|


--3---3--3----3---1--1------3--3-3-----------------------------------------------------|


--2---2--2----0---0--0------3--3-3-----------------------------------------------------|

--0---0--0----2---2--2------1--3-3-----------------------------------------------------|
--------------3---3--3------1--1-1-----------------------------------------------------|
---------------------------------------------------------------------------------------|
        [F]                [Dm]                                                                     
E--1-1-1----1-1-1-1-1----------|
B--1-1-1----3-3-3-3-3----------|
G--2-2-2----2-2-2-2-2----------|
D--3-3-3----0-0-0-0-0----------|
A------------------------------|
E------------------------------|

Verse:
[F]Tear drops on the city[Dm]
Bad Scooter searching for his groove
Seem like the whole world [Bb]walking pretty                     [Gm]
[Bb]And you can't find the room to move[Gm]               [F]        [Dm]
We[C]ll everybody better move over, that's all
[Bb]I'm running on the bad side
[C]And I got my back to the wall

Chorus:
Tenth Av[Dm]enue free[F]ze-out[Dm], Tenth Avenue freeze-out

Verse:
[F]I'm stranded in[Dm] the jungle
Taking all the heat they was giving
[Bb]The night is dark [Gm]but the sidewalk's bright
[Bb]And lined with the ligh[Gm]t of the living          [F]            [Dm]
[C]From a tenement window a transistor blasts
Turn around the corner things [Bb]got real quiet real fast
[C]She hit me with a

Chorus:
[F]Tenth Av[Dm]enue freeze-out           Tenth Avenue freez[F]e-out   [Dm]

Post Chorus:
[D(9]And I'[Dm]m all [C(9]alone, [C]I'm al[Bb]l alon[Bb(9]e                                          (Horns Part)

(And kid you better get the picture)

[D(9]And I[Dm]'m [C(9]on my[C] own[Bb], I'm o[Bb(9]n my own
And I can't go home               [F]      [Dm]

Verse:
[F]When the change w[Dm]as made uptown
And the Big Man joined the band
[Bb]From the coastline to the city [Gm]
[Bb]All the little pre[Gm]tties raise their hands           [F]         [Dm]
[C]I'm gonna sit back right easy and laugh
[Bb]When Scooter and the Big Man bust this city in half                      [C]

Chorus:
[F]With a[Dm] Tenth Avenue freeze-out,
Tenth Avenue freeze-out

Important: The song above is NOT stored on the Chordie server. The original song is hosted at www.guitaretab.com. Chordie works as a search engine and provides on-the-fly formatting. Chordie does not index songs against artists'/composers' will. To remove this song please click here.

Text color:
Chord color:
Chord grids: 
Font size:    
Page size: 

Bb C Dm F Gm
variations - click chord images

Login - add to songbook

Transpose chords

Tuning

Rating click stars to rate

Layout
Accuracy

SHARE PAGE  




You need to log in to post comments