Guitar Tabs, Chords and Lyrics


You Can Look But Better Not Touch  Bruce Springsteen



         [F]            [C]               [F]              [C]          [F]                             
--------|-----3-5-3-|-/8-/8--------|-------3-5-3-|---------|---------3-5-3-|
--5<3---|-5/6-------|-/8-/8--5<3---|---5/6-------|-5-5<3---|----5/6--------|
---p--5-|--s--------|-s--s----p--5-|-5--s--------|----p--5-|-5---s---------|
--------|-----------|--------------|-------------|---------|---------------|
--------|-----------|--------------|-------------|---------|---------------|
--------|-----------|--------------|-------------|---------|---------------|

[C]             [F]          [C]      [F]       [C]     [F]       [G]                                        
-/8-8-------|---------|------------|-----------|---3-3-3---3-3-3-3--
-/8-8--5<3--|---3-5-3-|------3-5-3-|-----3-5-3-|---0-0-0---0-0-0-0--
-s------p-5-|-5-------|--5-5-------|-5-5-------|---0-0-0---0-0-0-0--
------------|---------|------------|-----------|---0-0-0---0-0-0-0--
------------|---------|------------|-----------|---2-2-2---2-2-2-2--
------------|---------|------------|-----------|---3-3-3---3-3-3-3--

Yester[C]day I went shopping buddy[F] down to the m[C]all
Looking for something pretty I could h[F]ang on my [C]wall
I knocked over a lamp before it h[F]it the floor I caug[C]ht it
A salesman turned around said, "boy you [F]break that thing you [C]bought it"
You can l[F]ook but you better not [C]touch boy
You can l[F]ook but you better not [C]touch
Mess aro[F]und and you'll end up in [Am]dutch boy
You can l[C]ook but you be[F]tter not, [C]oh no you [F]better not, [C]oh no you b[F]etter not t[G]ouch
Well I c[C]ame home from work and I s[F]witched to Channel [C]5
There was a pretty little girly looking s[F]traight into my e[C]yes
Well I watched as she wiggled back and f[F]orth across the s[C]creen
She didn't get me excited she just[F] made me feel m[C]ean
You can l[F]ook but you better not [C]touch boy
You can l[F]ook but you better not [C]touch
Mess aro[F]und and you'll end up in [Am]dutch boy
You can l[C]ook but you be[F]tter not, [C]oh no you [F]better not, [C]oh no you b[F]etter not t[G]ouch
(repeat intro)


Well I c[C]alled up Dirty Annie on the[F] teleph[C]one
I took her out to the drive-in just to[F] get her al[C]one
I found a lover's rendezvous, the music[F] low, set to p[C]ark
I heard a tapping on the window and a [F]voice in the d[C]ark
You can l[F]ook but you better not [C]touch boy
You can l[F]ook but you better not [C]touch
Mess aro[F]und and you'll end up in [Am]dutch boy
You can l[C]ook but you be[F]tter not, [C]oh no you [F]better not, [C]oh no you b[F]etter not t[G]ouch
You can l[F]ook but you better not t[C]ouch boy
You can l[F]ook but you better not t[C]ouch
Mess aro[F]und and you'll end up in [Am]dutch boy
You can lo[C]ok but you be[F]tter not, [C]oh no you b[F]etter not, [C]oh no you be[F]tter not
C F C F C F | C F | G |
Oh no you better not, oh no you better not, oh no you better not

(repeat intro)

[C]   [F]   [G]   [Am]                                                                              
-0--1--3--0-
-1--1--0--2-
-0--2--0--2-
-2--3--0--2-
-3--3--2--0-
----1--3----


b....bend
rb...release bend
/....slide up
\....slide down
>....hammer
<....pull
vvv..vibrato

Important: The song above is NOT stored on the Chordie server. The original song is hosted at www.guitaretab.com. Chordie works as a search engine and provides on-the-fly formatting. Chordie does not index songs against artists'/composers' will. To remove this song please click here.

Text color:
Chord color:
Chord grids: 
Font size:    
Page size: 

Am C F G
variations - click chord images

Login - add to songbook

Transpose chords

Tuning

Rating click stars to rate

Layout
Accuracy

SHARE PAGE  




You need to log in to post comments