I Wanna Marry You

Bruce Springsteen

 DGAA7GA
-----|-----|-----|-----|-----|--0--|----------|----0-|---------|
-----|-----|-3-2-|-----|-2-3-|--2--|-2--2---2-|-3--2-|-2-7-7\5-|
-----|--2--|-----|--4--|-----|-----|-2----4---|-4----|-2-6-6\4-|
-4-5-|-----|-----|-----|-----|-----|----------|------|------s--|
-----|-----|-----|-----|-----|-----|----------|------|---------|
-----|-----|-----|-----|-----|-----|----------|------|---------|


 DG6A
 I see you walking baby down the street
 DG
Pushing that baby carriage at your feet
 A
I see that lonely ribbon in your hair
 A7D
Tell me am I the man for whom you put it there

 DG6
 You never smile girl, you never speak
 AD
You just walk on by, darling week after week
 GA
Raising two kids alone in this mixed up world
 A7D
Must be a lonely life for a working girl

 G6
Little girl I wanna marry you
 AD
Oh yeah, little girl I wanna marry you
 G
Yes I do
 AD
Little girl, I wanna marry you

 G6
Now, honey I don't wanna clip your wings
 ADG
But a time comes when two people should think of these things 
 A
Having a home and a family
 A7D
Facing up to their responsibilities
 G6
They say that in the end true love prevails
 ADG
But in the end true love can't be no fairytale 
 A
To say I'll make your dreams come true would be wrong
 A7D
But maybe darling, I could help them along

 G6
Little girl I wanna marry you
 AD
Oh yeah, little girl I wanna marry you
 G
Yes I do
 AD
Little girl, I wanna marry you

 GA
 My daddy said right before he died
 F#m7Bm7
That true, true love was just a lie
 GA
He went to his grave a broken heart
 GA
An unfulfilled live, makes a man hard

Oh, darling,
 DG6
 There's something happy and there's something sad
 ADG
'Bout wanting somebody, oh so bad  
 A
I wear my love darling without shame
 A7D
I'd be proud if you would wear my name

(Sax solo to fade out) | D | D | G | G | A | A | G | A |

 DG6AGF#m7Bm7
-2--0--0--3--2-----2--
-3--0--2--0--2-----3--
-2--0--2--0--2-----2--
-0--0--2--0--2-----4--
----2--0--2--4-----2--
----3-----3--2--------


A A7 Bm7 D F#m7 G G6
variations - click chord images
Transpose chords:
Tuning:
Cool service:
View: Size:
A  A  A
Rating:
Layout:
  • Currently 2.8/5 Stars.
  • 1
  • 2
  • 3
  • 4
  • 5
 
Accuracy:
  • Currently 3.2/5 Stars.
  • 1
  • 2
  • 3
  • 4
  • 5
 
click stars to rate
Chordie recommends:
Get acoustic guitar lessons and electric guitar lessons at JamPlay.com
Songbook:
Login to add this song to your songbook
Support the artist
Preview/buy this song
MSN Music
Why this non-profit ad?

 
login to add comments/video/corrections