"yes"; ?> Darlington County by Bruce Springsteen - guitar chords, guitar tabs and lyrics - chordie

Darlington County

Bruce Springsteen

 G
----------|-----------|--------------|-----------------|----------|---------------|
----------|-----------|--------------|-----------------|----------|---------------|
-s--7-7---|-7-7---9-7-|-s--7-7--s----|-----------------|-s--7-7---|-7-7---9-7-----|
-/9-----9-|-----9-----|-/9-----9\7-5-|-7-5---5--p-h-p--|-/9-----9-|-----9-----9-7-|
----------|-----------|--------------|-----7---7<5>7<5-|----------|---------------|
----------|-----------|--------------|-----------------|----------|---------------|

 CFG
--------------|-----------------|----------|---------|------------------|----------|
--------------|-----------------|----------|---------|------------------|----------|
-s--7-7--s----|-----------------|----------|---------|------------------|-s--7-7---|
-/9-----9\7-5-|-7-5---5--p-h-p--|-s--5-5---|-5-5-7-5-|-s--5-5-----------|-/9-----9-|
--------------|-----7---7<5>7<5-|-/7-----7-|---------|-/7-----7-5-3---3-|----------|
--------------|-----------------|----------|---------|--------------5---|----------|
---------------|--------------|-------|
---------------|--------------|-------|
-7-7---9-7-----|-s--7-7--s----|-------|
-----9-----9-7-|-/9-----9\7-5-|-7-5-5-|
---------------|--------------|-------|
---------------|--------------|-------|


 GCG
 Driving into Darlington County
 CG
Me and Wayne on the Fourth of July
 CG
Driving into Darlington County
 CG
Lookin' for some work on the county line
 CFC
 We drove down from New York City
 FC
Where the girls are pretty but they just wanna know your name
 GCG
 Driving into Darlington City
 CG
Got a union connection with an uncle of Wayne's
 D
We drove eight hundred miles without seeing a cop
 C
We got rock'n'roll music blasting off the t-top  

 GCG
Singing sha-la la, sha la la la la la
 CG
sha-la la la la la la
 CG
sha-la la, sha-la la la la la
 CG
sha-la la la la la la
 GCG
 Hey little girl, standing on the corner 
 G
Today's your lucky day for shure, all right
 CG
Me and my buddy, we're from New York City
 CG
We got two hundred dollars, we want to rock all night
 CFC
Girl, you're lookin' at two big spenders
 FC
Why, the world don't know what me and Wayne might do
 GCG
Our pa's each own one of the World Trade Centers
 CG
For a kiss and a smile I'll give mine all to you
 D
C'mon baby, take a seat on the fender, it's a long night
 C
Tell me, what else were you gonna do?

Just me and you, we could ...

 GCG
Singing sha-la la, sha la la la la la
 CG
sha-la la la la la la
 CG
sha-la la, sha-la la la la la
 CG
sha-la la la la la la
(Sax Solo) | C | C | C | G | D | D | G |

 GCG
 Little girl, sittin' in the window
 CG
Ain't seen my buddy in seven days
 CG
County man tells me the same thing
 CG
He don't work, and he don't get paid
 CFC
Little girl, you're so young and pretty 
 FC
Walk with me and you can have your way
 GCG
 Then we'll leave this Darlington City
 CG
For a ride down that Dixie Highway

 GCG
Singing sha-la la, sha la la la la la
 CG
sha-la la la la la la
 CG
sha-la la, sha-la la la la la
 CG
sha-la la la la la la
 GCG
 Driving out of Darlington County
 CG
I seen the glory of the comin' of the Lord.
 CG
Driving out of Darlington County
 CG
Seen Wayne handcuffed to the bumper of a state trooper's Ford.

 GCG
Singing sha-la la, sha la la la la la
 CG
sha-la la la la la la
 CG
sha-la la, sha-la la la la la
 CG
sha-la la la la la la (to fade)
 GCDF
--3--0--2--1-
--0--1--3--1-
--0--0--2--2-
--0--2--0--3-
--2--3-----3-
--3--------1-


b....bend
rb...release bend
/....slide up
\....slide down
>....hammer
<....pull
vvv..vibrato

C D F G
variations - click chord images
Transpose chords:
Tuning:
Cool service:
View: Size:
A  A  A
Rating:
Layout:
  • Currently 3.4/5 Stars.
  • 1
  • 2
  • 3
  • 4
  • 5
 
Accuracy:
  • Currently 3.3/5 Stars.
  • 1
  • 2
  • 3
  • 4
  • 5
 
click stars to rate
Chordie recommends:
Learn to play songs at Jamplay.com with video guitar lessons
Songbook:
Login to add this song to your songbook
Support the artist
Preview/buy this song
MSN Music
Why this non-profit ad?

 
login to add comments/video/corrections