Guitar Tabs, Chords and Lyrics


If I Should Fall Behind Live In Dublin  Bruce Springsteen

E|-------------------------------------------------------------|


B|-----------------------------------3--2--0-------------------|


G|-------------------------------------------------------------|

D|--0--2--4--0--0--2--4--0--0--0--0----------------------------|
A|-------------------------------------------------------------|
E|-------------------------------------------------------------|
E|-------------------------------------------------------------|
B|--0--2--3----------------------------------------------------|
G|-----------2--2--2-----2--2--0-------------------------------|
D|--------------------4-----------4--2-------------------------|
A|-------------------------------------------------------------|
E|-------------------------------------------------------------|
E|-------------------------------------------------------------|
B|-----------------------------------3--2--0-------------------|
G|-------------------------------------------------------------|
D|--0--2--4--0--0--2--4--0--0--0--0----------------------------|
A|-------------------------------------------------------------|
E|-------------------------------------------------------------|
E|-------------------------------------------------------------|
B|--0--2--3----------------------------------------------------|
G|-----------2--2--2-----0-------------------------------------|
D|--------------------4-----4--2--0----------------------------|
A|-------------------------------------------------------------|
E|-------------------------------------------------------------|
[D]We said we'd walk together ,darling, come what [G]may
[D]That in twilight should we lose our [A]way
[D]If as we're walking your hand should slip [G]free
I'll wait or [D]you and If I should fall behind
Will [A]you wait for [D]me?
Play riff 2 times(band)

Verse 2:
[D]We swore we'd travel ,darling, side by [G]side
[D]We'd help each other stay in [A]stride
But [D]each lover's steps fall so different[G]ly
I'll wait for [D]you and If I should fall behind
Will [A]you wait for [D]me?

Interlude:
Now [G]everyone dreams of a love [D]lasting and true
But [D]you and I know what this world can [A]do
So [D]let's make our steps clear so tha the other may [G]see
I'll wait for [D]you and if I should fall behind
Will [A]you wait for [D]me?

Play riff 2 times(band)

Verse 3:
Dsus2 G modal
Now there's a beautiful river in the valley ahead
[Dsus2]There 'neath the oak's bough, soon [Asus2]we'll be wed
Dsus2 G modal
Should we lose each other in the evening trees
I'll wait for [Dsus2]you and if I should fall behind
Will [Asus2]you wait for [Dsus2]me?
I'll wait for [Dsus2]you and if I should fall behind
Will [Asus2]you wait for [Dsus2]me?
I'll wait for [Dsus2]you and if I should fall behind
Will [Asus2]you wait for [Dsus2]me?

Play riff 4 times(band)

Enjoy! Long live the Boss and this great band.

Important: The song above is NOT stored on the Chordie server. The original song is hosted at www.guitaretab.com. Chordie works as a search engine and provides on-the-fly formatting. Chordie does not index songs against artists'/composers' will. To remove this song please click here.

Text color:
Chord color:
Chord grids: 
Font size:    
Page size: 

A Asus2 D Dsus2 G
variations - click chord images

Login - add to songbook

Transpose chords

Tuning

Rating click stars to rate

Layout
Accuracy

SHARE PAGE  




You need to log in to post comments