Guitar Tabs, Chords and Lyrics


Devils Arcade  Bruce Springsteen

Reme[D]mber the morning we du[Am]g up your gun
The worm[C]s in the barrel, the ha[G]nging sun
Those fi[D]rst nervous evening[Am]s of perfume and gin
The lost [C]smell on your breath a[G]s I helped you get it in
The rush [Em]of your lips, the feel [C]of your name
The beat i[Em]n your heart, the [G]devil's arcade [D]


You said [D]"Heroes are needed, so[Am] heroes get made"
Somebod[C]y made a bet, som[G]ebody paid
The coo[D]l desert morning an[Am]d nothing to save
Just [C]metal and plastic w[G]here your body caved
The slow[Em] games of poker with L[C]ieutenant Ray
In the war[Em]d with the blue walls,[C] a sea with no name
Where you [Em]lie adrift with the hero[G]es of the devi[D]l's arcade
You sleep a[C]nd you dream, your buddies [Em]Charlie and James
And wake wi[Em]th a thick dese[G]rt dust on your sk[D]in
Guitar 2(electric)

e|----------------------------------------------|
B|-----9-7-9-7-5-9-10-9-10-7-9-10-9-7-5------5--|
G|---------------------------------------6-4----|
D|----------------------------------------------|
A|----------------------------------------------|
E|----------------------------------------------|

REPEAT 2X

then
e|--------------------------------------------------|
B|------9-10-9-7-5---9-10-9-7-5---9-10-9-7-5-----7--|
G|-----------------6-------------------------6-4----|
D|--------------------------------------------------|
A|--------------------------------------------------|
E|--------------------------------------------------|


Guitar 3

e|--------------------------5h7-7h9-7-5-5h7--|
B|-------------------------------------------|
G|-------------------------------------------|
D|-------------------------------------------|
A|-------------------------------------------|
E|-------------------------------------------|


Voice [D]says "don't wo[Am]rry, I'm here
Just whi[C]sper the word to[G]morrow in my ear"
House on[D] a quiet street, a home[Am] for the brave
A glorio[C]us kingdom with the [G]sun on your face
Rising from[Em] a long night as da[C]rk as the grave
On a thin [Em]chain of next mome[C]nts and something like faith
On a mornin[Em]g to order a bre[C]akfast to make
A bed dr[Em]aped in sunshine, a[C] body that waits
For the [Em]touch of your fingers,[C] the end of the day
The beat o[Em]f your heart, the bea[C]t of your heart
The beat[Em] of your heart, the[C] beat of your heart
The beat[Em] of your heart, the be[C]at of her heart
The beat[Em] of your heart, the slo[C]w burning away
Of the bit[Em]ter fires of t[G]he devil's arca[D]de

Guitar 2(electric)

e|----------------------------------------------|
B|-----9-7-9-7-5-9-10-9-10-7-9-10-9-7-5------5--|
G|---------------------------------------6-4----|
D|----------------------------------------------|
A|----------------------------------------------|
E|----------------------------------------------|
e|-----------------------------------------------|
B|-----/9-7-9-7-5-9-10-9-10-7-9-10-9-7-5------5--|
G|---------------------------------------6-4-----|
D|-----------------------------------------------|
A|-----------------------------------------------|
E|-----------------------------------------------|


Guitar 3(electric)

e|---------------------------4h5-4h5h7-7h9-7-9-9--|
B|------------------------------------------------|
G|------------------------------------------------|
D|------------------------------------------------|
A|------------------------------------------------|
E|------------------------------------------------|


Guitar 2
e|--------------------------------------------------|
B|------9-10-9-7-5---9-10-9-7-5---9-10-9-7-5-----7--|
G|-----------------6-------------------------6-4----|
D|--------------------------------------------------|
A|--------------------------------------------------|
E|--------------------------------------------------|


Guitar 3
e|----------9-7h9-9-9-9-9/10-9-7h9-9-9-9-7-5-5h7--5p4--|
B|-----------------------------------------------------|
G|-----------------------------------------------------|
D|-----------------------------------------------------|
A|-----------------------------------------------------|
E|-----------------------------------------------------|



DRUMS FINISH

Questions Comments-tennisguy3272@aol.com

Important: The song above is NOT stored on the Chordie server. The original song is hosted at www.guitaretab.com. Chordie works as a search engine and provides on-the-fly formatting. Chordie does not index songs against artists'/composers' will. To remove this song please click here.

Text color:
Chord color:
Chord grids: 
Font size:    
Page size: 

Am C D Em G
variations - click chord images

Login - add to songbook

Transpose chords

Tuning

Rating click stars to rate

Layout
Accuracy

SHARE PAGE  




You need to log in to post comments