Guitar Tabs, Chords and Lyrics


Pititis Te Invoco   Brujeria



Song: Pititis Te Invoco
Album: Brujerizmo
Band: Brujeria
Instrument: Guitar
Transcribed: pinche grenudo loko [albafreak1@juno.com]

drop D
SPM: slightly palm mute
PM:.... without "space between them"
*0*: it's optional to play

Brujeria plays 7-stringers...so u might want to tune it down to A, if u hav
a 6-string guitar, but i tuned it to D...it's up to U...RATE MY TAB!!!   LISTEN
TO THE SONG BEFORE PLAYING IT...TO GET AN IDEA OF HOW IT'S PLAYED!!!

Intro
play @ 4times, then play 1x ------->
E|------------------------------------|--------------------------------|
B|------------------------------------|--------------------------------|
G|--8-8-8-8-8-8-14-8-8-8-14-14-14-14--|--8-8-8-8-8-8-14-8-8-8----------|
D|--x-x-x-x-x-x- x-x-x-x- x- x- x- x--|--x-x-x-x-x-x- x-x-x-x----------|
A|--6-6-6-6-6-6-12-6-6-6-12-12-12-12--|--6-6-6-6-6-6-12-6-6-6-7-8-6-7--|
D|------------------------------------|-----------------------7-8-6-7--|

Verse:
play @ 4x's [i would rekommend u strum everything up 'til the 5th fret]
E|--------------------------------------------------------------------------|
B|--------------------------------------------------------------------------|
G|--------------------------------------------------------------------------|
D|--------------------------------------------------------------------------|
A|--2-2-2-2-2-2-3-2--2-2-2-2-2-2-3-2--2-2-2-2-2-2-3-2--2-2-2-2-2-2-5-5-5-5--|
D|--2-2-2-2-2-2-3-2--2-2-2-2-2-2-3-2--2-2-2-2-2-2-3-2--2-2-2-2-2-2-5-5-5-5--|
SPM . . . . . . . .  . . . . . . . .  . . . . . . . .  . . . . . . .......

Verse B: [play this when PITITIS STARTS TO SING]
play @ 4x's				play once
E|-----------------------------------|--------------------------------|
B|-----------------------------------|--------------------------------|
G|--8-8-8-8-8-8-14-8-8-8-14-14-14-14-|--8-8-8-8-8-8-14-8-8-8----------|
D|--x-x-x-x-x-x- x-x-x-x- x- x- x- x-|--x-x-x-x-x-x- x-x-x-x----------|
A|--6-6-6-6-6-6-12-6-6-6-12-12-12-12-|--6-6-6-6-6-6-12-6-6-6-7-8-6-7--|
D|-----------------------------------|-----------------------7-8-6-7--|

Chorus: ["te invoco - te cogo]
play @ 8x's
E|----------------------|
B|----------------------|
G|----------------------| Note: the "0" with the asteriks r optional
D|--0-5-0-5-0-4--*0-0*--|       i put them in kuz i play them when
A|--0-5-0-5-0-4--*0-0*--|	the drums step in...if u don't want to
D|--0-5-0-5-0-4--*0-0*--|	play them...let the 4 ring for a while!

Bridge:
play 1x
E|--------------------------------------------------------------------------|
B|--------------------------------------------------------------------------|
G|--------------------------------------------------------------------------|
D|--------------------------------------------------------------------------|
A|--------------------------------------------------------------------------|
D|--2-2-2-2-2-2-3-2--2-2-2-2-2-2-3-2--2-2-2-2-2-2-3-2--2-2-2-2-2-2-5-5-5-5--|
SPM . . . . . . . .  . . . . . . . .  . . . . . . . .  . . . . . . .......

Verse:
play @ 4x's [i would rekommend u strum everything up 'til the 5th fret]
E|--------------------------------------------------------------------------|
B|--------------------------------------------------------------------------|
G|--------------------------------------------------------------------------|
D|--------------------------------------------------------------------------|
A|--2-2-2-2-2-2-3-2--2-2-2-2-2-2-3-2--2-2-2-2-2-2-3-2--2-2-2-2-2-2-5-5-5-5--|
D|--2-2-2-2-2-2-3-2--2-2-2-2-2-2-3-2--2-2-2-2-2-2-3-2--2-2-2-2-2-2-5-5-5-5--|
SPM . . . . . . . .  . . . . . . . .  . . . . . . . .  . . . . . . .......

Verse B: [play this when PITITIS STARTS TO SING]
play @ 4x's				play once
E|------------------------------------|--------------------------------|
B|------------------------------------|--------------------------------|
G|--8-8-8-8-8-8-14-8-8-8-14-14-14-14--|--8-8-8-8-8-8-14-8-8-8----------|
D|--x-x-x-x-x-x- x-x-x-x- x- x- x- x--|--x-x-x-x-x-x- x-x-x-x----------|
A|--6-6-6-6-6-6-12-6-6-6-12-12-12-12--|--6-6-6-6-6-6-12-6-6-6-7-8-6-7--|
D|------------------------------------|-----------------------7-8-6-7--|

Outro: ["te invoco - te cogo]
play @ 8x's		END WITH THIS
E|----------------------|-------------|
B|----------------------|-------------|
G|----------------------|-------------|
D|--0-5-0-5-0-4--*0-0*--|--5-4-0-4-0--|
A|--0-5-0-5-0-4--*0-0*--|--5-4-0-4-0--|
D|--0-5-0-5-0-4--*0-0*--|--5-4-0-4-0--|
that's it...please rate my tab...it's not that hard to rate...
it will take u 30 sekonds at most


Important: The song above is NOT stored on the Chordie server. The original song is hosted at www.guitaretab.com. Chordie works as a search engine and provides on-the-fly formatting. Chordie does not index songs against artists/composers will. To remove this song please click here.

This song is displayed as text-only. Transposing and tuning is only available for chordpro-songs.

Login - add to songbook

Rating click stars to rate

Layout
Accuracy

SHARE PAGE  




You need to log in to post comments