Chordie logo
content loaded from cache

Im Ready  Bryan Adams

[Am]  And there's only [C]one thing I c[Dsus2]an    say[D]

G G* F C G* F Am C G
I'm ready - to love you I'm ready - to hold you
G G* F C G* F Am C G C F C
I'm ready - to love you I'm ready - to hold you I'm Ready as I'm gonna be

G* Em F F Am C G* C
|------------------------------12h15p12-15-15b(17)-(17)r15-15---12--12--12-12---|
|-15~-15p12------------------------------------------------------------------15-|
|-----------h14-14p12----14-----------------------------------------------------|
|---------------------14--------------------------------------------------------|
|-------------------------------------------------------------------------------|
|-------------------------------------------------------------------------------|


G* Em F
You left me a long note when you left me here
Am C G* G* Em F
Told me that love was hard to find But baby it's easy and I'll make it clear
[Am]  That there's only o[C]ne thing on my[Dsus2]   mind [D]

G G* F C G* F Am C G
I'm ready - to love you I'm ready - to hold you
G G* F C G* F Am C G C F C
I'm ready - to love you I'm ready - to hold you I'm Ready as I'm gonna be

G* Em F F Am C G* C
|-------------------------12h15p12-15-15b(17)-(17)r15-15---12--12--12-12-------|
|-15~-17--15p12----------------------------------------------------------15----|
|---------------14p12h14~------------------------------------------------------|
|------------------------------------------------------------------------------|
|------------------------------------------------------------------------------|
|------------------------------------------------------------------------------|

G* Em F F Am C Dsus2 D Dsus2 D
|-12-13--12-13-15---12h15p12-------------------12—12b(13)r12--------------------|
|----------------------------15p12h15-------15---------------13--15-------------|
|-------------------------------------14----------------------------------------|
|-------------------------------------------------------------------------------|
|-------------------------------------------------------------------------------|
|-------------------------------------------------------------------------------|


G G* F C G* F Am C G
I'm ready - to love you I'm ready - to hold you
G G* F C G* F Am C G C
I'm ready - to love you I'm ready - to hold you

G G* F C G* F Am C G
Baby I'm ready I'm ready I'm ready - to hold you
G G* F C G* F Am C G
Can't you hear me I'm ready I'm ready I'm ready - to love you

G G* F C G* F Am C G C
Baby I'm ready I'm ready I'm ready - to hold you
I'm [F]ready as I'm gonna [C]be

Important: The song above is NOT stored on the Chordie server. The original song is hosted at www.guitaretab.com. Chordie works as a search engine and provides on-the-fly formatting. Chordie does not index songs against artists/composers will. To remove this song please click here.

Am C D Dsus2 F
variations - click chord images

Transpose chords

Tuning

Rating click stars to rate

Layout
Accuracy

SHARE PAGE  

You need to log in to post comments