Shes A Little Too Good For Me

Bryan Adams

-------------------------------------------------------------------------------

-------------------------------------------------------------------------------
e|---------------------------------------------------------------------------|
B|-------4-----4---4---------------------------------------------------------|
G|-----3-----3-----5--let ring-----------------------------------------------|
D|---5-----3-------6---------------------------------------------------------|
A|---------------------------------------------------------------------------|
E|---------------------------------------------------------------------------|

 EbG#EbG#
 She got my name, she got my number

 EbG#
 But what she sees in me

A# (play and mute immediately)
I -------------------------------- sometimes wonder


Chorus:

 EbA#G#
She's a little too good for me

 EbA#G#
She's gonna change me if I let her
 EbA#G#
She's a little too good for me

 EbA#G#
And I'm gettin' better-------------


Bridge:

 EbG#
 She says, I do

 EbG#
 Something, to her

 EbG#
 All her friends say

 EbG#A#
 I'm a looooooo-ser

Chords Used:
e|----6-----6-----4----------------------------------------------------------|
B|----8-----6-----4----------------------------------------------------------|
G|----8-----7-----5----------------------------------------------------------|
D|----8-----8-----6----------------------------------------------------------|
A|----6-----8-----6----------------------------------------------------------|
E|----------6-----4----------------------------------------------------------|

 EbA#G#

A# Eb G#
variations - click chord images
Transpose chords:
Tuning:
Cool service:
View: Size:
A  A  A
Rating:
Layout:
  • Currently 5/5 Stars.
  • 1
  • 2
  • 3
  • 4
  • 5
 
Accuracy:
  • Currently 5/5 Stars.
  • 1
  • 2
  • 3
  • 4
  • 5
 
click stars to rate
Chordie recommends:
Get acoustic guitar lessons and electric guitar lessons at JamPlay.com
Songbook:
Login to add this song to your songbook
Support the artist
Preview/buy this song
MSN Music
Why this non-profit ad?

 
login to add comments/video/corrections