Brooklyn

Buckcherry

--------------------------------------------------------------------------

--------------------------------------------------------------------------
e|-------------------------------------------------------------------------|
B|-----------------------------------------------------------------12-12-10|
G|-----------------10---------------------------------------10-----12-12-10|
D|3\12-10-12--10-12---12--10-12---------10-12--10-12--10-12----12----------|
A|------------------------------10-11-12-----------------------------------|
E|-------------------------------------------------------------------------|
e|----------------------------------------------------------|
B|----------------------------------------------------------|
G|----------------------------------------------------------|
D|-------------3-----------------------------3--------------|
A|5--3-5--3-5----5--3-5-------3-5--3-5--3-5----5--3-5-------|
E|----------------------3-4-5-------------------------3-4-5-|

 FG
    Take a flight to London sing my song

F G GUITAR RIFF
bring me back to New York that's where I get paid

 FG
    Dance with the ladies all night long

F G GUITAR RIFF
take train to Brooklyn tryin' to get laid

 ACACC#
 Don't be afraid I won't bite hard it's better than being alone    

CHORUS

 DCGDCG
 Black out in Brooklyn I'm so hard naked with lady crashed my car

D C G A C C# D GUITAR RIFF
Maxed out all of my credit cards black out in Brooklyn all night long

Solo Rhythm Guitar

e|-------------------------------------------------------------------------|
B|-------------------------------------------------------------------------|
G|--------------------------9--7-7--9----9--7-7--9-------------------------|
D|-9--7-7--9----9--7-7--9---9--7-7--9----9--7-7--9---9--7-7--9---9--7-7--9-|
A|-9--7-7--9----9--7-7--9---7--5-5--7----7--5-5--7---9--7-7--9---9--7-7--9-|
E|-7--5-5--7----7--5-5--7----------------------------7--5-5--7---7--5-5--7-|				



A C C# D F G
variations - click chord images
Transpose chords:
Tuning:
Cool service:
View: Size:
A  A  A
Rating:
Layout:
  • Currently 2.6/5 Stars.
  • 1
  • 2
  • 3
  • 4
  • 5
 
Accuracy:
  • Currently 3.2/5 Stars.
  • 1
  • 2
  • 3
  • 4
  • 5
 
click stars to rate
Chordie recommends:
Learn to play guitar with video-based, online guitar lessons at JamPlay.com
Songbook:
Login to add this song to your songbook
Support the artist
Preview/buy this song
MSN Music
Why this non-profit ad?

 
login to add comments/video/corrections