Chordie logo


Waiting Hare   Buckethead



Intro and shana Singing:
|--------------------------------------------------------------|
|--------------10----------------------10----------------------|
|--------11-------11----11-------11-------11----11-------------|
|-----12-------------12-------12-------------12----------------|
|--10-------10--------------9-------9--------------------------|
|--------------------------------------------------------------|


|--------------------------------------------------------------|
|--------------------------------------------------------------|
|-----------9--------------------9-----------------------------|
|------12-----12----12------12-----12----12--------------------|
|---10-----------10------10-----------10-----------------------|
|-7-------7------------8-------8-------------------------------|


Serj;s first part:
|-------------------------------------12---------------------|
|------------15----15-----------15-------15----15------------|
|------11/12----12----12-----------12-------12---------------|
|------------------------------------------------------------|
|---14----------------------14-------------------------------|
|-0----------------------14----------------------------------|


Dont you know..

|-------2-----0----|
|-8-----3-----1----|
|-9----------------|
|-------0----------|
|-------------3----|
|-0----------------|


Distortion:

|------------------7-7-7-7-7------------------------------------------------|
|------------------8-8-8-8-8-------------------5-5-5-5-5--------------------|
|------------------9-9-9-9-9-------------------5-5-5-5-5--------------------|
|------------------9-9-9-9-9-------------------5-5-5-5-5--------------------|
|------5-----------7-7-7-7-7--------5--------3-3-3-3-3-3--------------------|
|--5-7---7-5-3~--0-0-0-0-0-0----5-7---7-5-3~--------------------------------|


mellow solo (Rythm): dont be a puss, improvise.

|---------|
|-7--8--5-|
|-9--9--5-|
|-9--9--5-|
|-7--7--3-|
|-0--0----|


Cool fast part:
|---------------------------------------------|
|---------------------------------------------|
|---------------------------------------------|
|-------9----10--9----9-------9----10--9----9-|
|--7-10---10-------10----7-10---10-------10---|
|---------------------------------------------|


|---------------------------------|
|---------------------------------|
|---------------------------------|
|-----7---9-7---7-----7---9-7---7-|
|-5-9---9-----9---5-9---9-----9---|
|---------------------------------|

|---------------------------------|
|---------------------------------|
|---------------------------------|
|-----5---7-5---5-----5---7-5---5-|
|-3-7---7-----7---3-7---7-----7---|


Important: The song above is NOT stored on the Chordie server. The original song is hosted at www.guitaretab.com. Chordie works as a search engine and provides on-the-fly formatting. Chordie does not index songs against artists/composers will. To remove this song please click here.

This song is displayed as text-only. Transposing and tuning is only available for chordpro-songs.

Login - add to songbook

Rating click stars to rate

Layout
Accuracy

SHARE PAGE  




You need to log in to post comments