Guitar Tabs, Chords and Lyrics


Aquabot   Buckethead



from Giant Robot

Riff 1
e|---------------------------------------------------------|
b|---------------------------------------------------------|
g|---------------------------------------------------------|
d|--------1-----1h3--1--1---------------1---1h3p1h3b-------|
a|0--3-3-----3-------------0-1--2--3-3----3----------------|
e|---------------------------------------------------------|

Repeat this as many times as necessary.

Riff 2
e|--------------------------------------------------------|
b|--------------------------------------------------------|
g|-------------------------------------------------8b-----|
d|8h10-8h10-8h10-------------8h10-8h10-8h10---------------|
a|--------------------8-6---------------------------------|
e|--------------------------8-----------------------------|

e|-----------------------------------------|
b|-----------------------------------------|
g|-----------------------------------------|
d|8h10-8h10-8h10------------------5--------|
a|-------------------8-6----8-6-8---6------|
e|-------------------------8---------------|

e|---------------------------------------------------|
b|---------------------------------------------------|
g|---------------------------------------8b----------|
d|8h10-8h10-8h10---------8h10-8h10-8h10--------------|
a|-------------------8-6-----------------------------|
e|------------------------8--------------------------|

e|-----------------------------------|
b|-----------------------11----------|
g|------------------10b----10b-------|
d|8h10-8h10-8h10---------------------|
a|-----------------------------------|
e|-----------------------------------|

e|------------------------------------------------------|
b|------------------------------------------------------|
g|-----------------------------------------8b-----------|
d|8h10-8h10-8h10-----------8h10-8h10-8h10---------------|
a|-------------------8-6--------------------------------|
e|------------------------8-----------------------------|

e|------------------------------------------|
b|------------------------------------------|
g|------------------------------------------|
d|8h10-8h10-8h10------------------5---------|
a|-------------------8-6----8-6-8---6-------|
e|------------------------8-----------------|

e|-----------------------------------------------------|
b|-----------------------------------------------------|
g|---------------------------------------8b------------|
d|8h10-8h10-8h10---------8h10-8h10-8h10----------------|
a|-------------------8-6-------------------------------|
e|------------------------8----------------------------|

e|----------------------|
b|----------------------|
g|----------------------|
d|8h10------------------|
a|------9--8-6----6-----|
e|--------------6-------|

After this do Riff 1 again at the appropriate time.

Riff 3
e|--------------------------------------------------------|
b|--------------------------------------------------------|
g|----------8-7-------------10-8/-12-15--13--10-----------|
d|10-8-10-------12----12-------------------------9--------|
a|-------------------10-----------------------------------|


Important: The song above is NOT stored on the Chordie server. The original song is hosted at www.guitaretab.com. Chordie works as a search engine and provides on-the-fly formatting. Chordie does not index songs against artists/composers will. To remove this song please click here.

This song is displayed as text-only. Transposing and tuning is only available for chordpro-songs.

Login - add to songbook

Rating click stars to rate

Layout
Accuracy

SHARE PAGE  




You need to log in to post comments