Dos Gardenias

Buena Vista Social Club

----Intro-----


 EmAmEm
e|---7-10-12-10-------12---7-10-8-7--------8----7-----------------|
b|--------------13-12---------------10-8-7--------10-8-7-5-4-7-5--|
g|----------------------------------------------------------------|
D|----------------------------------------------------------------|
A|----------------------------------------------------------------|
E|----------------------------------------------------------------|
---VERSO---


 EmB7
Dos Gardenias para ti con ellas quiero decir
 EmC-B7Em
te quiero, te adoro, mi vida. 
 AmB7Em
Ponles toda tu atencion que seran tu corazon y el mio
 EmDm
Dos Gardenias para ti que tendran todo el calor
 Am
de un beso
 EmC
De esos besos que te di y que jamas encontraras
 B7Em
en el calor de otro querer.
 Em
A su lado viviran y se hablaran
 B7
como cuando estas conmigo
 AmB7Em
y hasta creeran que se diran te quiero
 EmDm
Pero si un atardecer las gardenias de mi amor se
 AmEm
mueren, es porque han adivinado que tu amor me ha
 CB7Em
traicionado porque existe otro querer.

----Solo----
e|---7-8-10-12-10-12------------7----7-10---8-7-12-------|
b|-------------------12--7-8-10---10---------------10----|
g|-------------------------------------------------------|
D|-------------------------------------------------------|
A|-------------------------------------------------------|
E|-------------------------------------------------------|
e|---7-10-12-10-------12---7-10-8-7--------8----7-----------------|
b|--------------13-12---------------10-8-7--------10-8-7-5-4-7-5--|
g|----------------------------------------------------------------|
D|----------------------------------------------------------------|
A|----------------------------------------------------------------|
E|----------------------------------------------------------------|
---VERSO---

 Em
A su lado viviran y se hablaran
 B7
como cuando estas conmigo
 AmB7Em
y hasta creeran que se diran te quiero
 EmDm
Pero si un atardecer las gardenias de mi amor se
 AmEm
mueren, es porque han adivinado que tu amor me ha
 CB7Em
traicionado porque existe otro querer.

 Em
es porque han adivinado que tu amor me ha
 CB7Em
traicionado porque existe otro querer.

Am B7 C Dm Em
variations - click chord images
Transpose chords:
Tuning:
Cool service:
View: Size:
A  A  A
Rating:
Layout:
  • Currently 3.5/5 Stars.
  • 1
  • 2
  • 3
  • 4
  • 5
 
Accuracy:
  • Currently 2.7/5 Stars.
  • 1
  • 2
  • 3
  • 4
  • 5
 
click stars to rate
Chordie recommends:
Get acoustic guitar lessons and electric guitar lessons at JamPlay.com
Songbook:
Login to add this song to your songbook
Support the artist
Preview/buy this song
MSN Music
Why this non-profit ad?

 
login to add comments/video/corrections