"yes"; ?> Y La Nave Va by Buenos Muchachos - guitar chords, guitar tabs and lyrics - chordie

Y La Nave Va

Buenos Muchachos

 FmC#
e |---------------------------------|
b |-----8-9--11-13--14-13-11-13/14--|
g |-10------------------------------|
d |---------------------------------|
a |---------------------------------|
e |---------------------------------|


 A#mC#G#D#A#m
e |-16-15-13--13-15-16----------------------|
b |---------------------16--11--9-11-13-11--|
g |-----------------------------------------|
d |-----------------------------------------|
a |-----------------------------------------|
e |-----------------------------------------|


 C#G#D#A#m
e |------------------------------------------|
b |-14--16-14-13-11-—9-11-13-11-—9-11-13-11--|
g |------------------------------------------|
d |------------------------------------------|
a |------------------------------------------|
e |------------------------------------------|


 Fm
...Humo blanco, perdio el encanto...

 C#
...viajando en un tiempo fugaz......

REPITE ACORDES HASTA ESTRIBILLO

 A#mC#G#D#A#m
 ......Y pienso en no volver.........  (x2)

 FmC#Fm
e |-------------------------------|
b |-------------------------------|
g |----------------------6-6p5----|
d |-----------------3-6--------3--|
a |-----------1-3-4---------------|
e |-1--3--4-----------------------|


 C#
e |----------------------------------|
b |----------------------------------|
g |----------------------------------|
d |-3-5-6--6-6-8-6-3-----------------|
a |------------------4--1-3-4--------|
e |----------------------------1-3-4-|


 Fm
...Levanto vuelo, no muy alto...

 C#
...solo para ver mejor......

REPITE ACORDES HASTA ESTRIBILLO

 A#mC#G#D#A#m
 ......Y pienso en no volver.........  (x2)

 FmC#Fm
e |-13---16-15------16-15------|
b |------------14---------13---|
g |----------------------------|
d |----------------------------|
a |----------------------------|
e |----------------------------|


 C#
e |-16-15--16-15--16-15--------|
b |------13-----13-----13--14--|
g |----------------------------|
d |----------------------------|
a |----------------------------|
e |----------------------------|


 Fm
e |----------------------------|
b |-18/16/14/13/11/13----------|
g |----------------------------|
d |----------------------------|
a |----------------------------|
e |----------------------------|


 C#
e |-----------------------------|
b |-9-11-13-14-13-11-9-8-9-8-6--|
g |-----------------------------|
d |-----------------------------|
a |-----------------------------|
e |-----------------------------|


 Fm
e |----------------------------|
b |-8/9/2-1--------------------|
g |---------3-5-6-5------------|
d |-----------------3--5-6-5---|
a |----------------------------|
e |----------------------------|


 C#
e |----------------------------|
b |----------------------------|
g |----------------------------|
d |-3-5-6----------------------|
a |-------4----------------1---|
e |----------------------------|


 A#mC#G#D#A#m
......Y pienso en no volver.........
e |---------------------------------|
b |---------------------------------|
g |-------------------3---5---3-1-3-|
d |-3-------------6-----------------|
a |---------------------------------|
e |---------------------------------|


 C#G#D#A#m
....no volver..................
e |----------------------------|
b |----------------------------|
g |---------3---5---3-1-3------|    (x3)
d |-3---6----------------------|
a |----------------------------|
e |----------------------------|


 FmC#
In the sun, I was your help

 FmC#
e |------------------------------|
b |-13-13-13-13-13-13-13-13-13/6-|
g |-13-13-13-13-13-12-12-12-13/6-|
d |-13-13-13-13-13-13-13-13-13/6-|
a |------------------------------|
e |------------------------------|				



A#m C# D# Fm G#
variations - click chord images
Transpose chords:
Tuning:
Cool service:
View: Size:
A  A  A
Rating:
Layout:
  • Currently 2.7/5 Stars.
  • 1
  • 2
  • 3
  • 4
  • 5
 
Accuracy:
  • Currently 2.8/5 Stars.
  • 1
  • 2
  • 3
  • 4
  • 5
 
click stars to rate
Chordie recommends:
Learn to play guitar with video-based, online guitar lessons at JamPlay.com
Songbook:
Login to add this song to your songbook
Support the artist
Preview/buy this song
MSN Music
Why this non-profit ad?

 
login to add comments/video/corrections