Tears Dont Fall

Bullet For My Valentine

 GmEbF
With blood shot eyes I watch you sleeping
 GmEbF
The warmth I feel beside me is slowly fading
 GmEbF
Would she hear me if I called her name?
 GmEbF
Would she hold me if she knew my shame?

 Gm
There's always something different going wrong
 EbF
The path I walk is in the wrong direction
 Gm
There's always someone f**king hanging on
 EbF
Can anybody help me make things better?

Chorus:
 EbF
Your tears don't fall

They crash around me
 EbF
Her conscience calls the guilty to come home
 EbF
Your tears don't fall

They crash around me
 EbF
Her conscience calls the guilty to come home

Verse2:
 GmEbF
The moments died, I hear no screaming
 GmEbF
The visions left inside me are slowly fading
 GmEbF
Would she hear me if I called her name?
 GmEbF
Would she hold me if she knew my shame?
 Gm
There's always something different going wrong
 EbF
The path I walk is in the wrong direction
 Gm
There's always someone f**king hanging on
 EbF
 Can anybody help me make things better?

Chorus:
 EbF
Your tears don't fall

They crash around me
 EbF
Her conscience calls the guilty to come home
 EbF
Your tears don't fall

They crash around me
 EbF
Her conscience calls the guilty to come home

 EbFGm
This battered room I've seen before
 EbFGm
The broken bones they heal no more, no more
 EbF
With my last breath I'm choking
 EbF
Will this ever end I'm hoping
 EbFGm
 My world is over one more time
 Gm
Lets go
(Adlib)
-18p15----15---------p15----15---------18p15----15---------18p15-----15----13/15---|
------h18----h18p15-------h18----h18p15-------h18----h18p15--------h18----18-------|
-----------------------------------------------------------------------------------|
-----------------------------------------------------------------------------------|
-----------------------------------------------------------------------------------|
-----------------------------------------------------------------------------------|
-18p15----15---------18p15----15---------18p15----15----------------------|
------h18----h18p15-------h18----h18p15-------h19----h18p15--18p15--------|
-------------------------------------------------------------------17-17b-|
--------------------------------------------------------------------------|
--------------------------------------------------------------------------|
--------------------------------------------------------------------------|
-18p15----15---------------------------------------------------|
------h18----h18p15--18p15----15-------------------------------|
---------------------------17----17p15--17p15-----15-----------|
----------------------------------------------h17----17-15-15b-|
---------------------------------------------------------------|
---------------------------------------------------------------|
----------------------------------h15-----------------------------|
-----------------------15h18p15h18--------------------------------|
----15h17p15------------------------------------------------------|
-17----------17/15--15--------------------------------------------|
------------------------------------------------------------------|
------------------------------------------------------------------|


 GmEbF
Would she hear me if i called her name?
 GmEbF
Would she hold me, if she knew my shame?
 Gm
There's always something to be going wrong
 EbF
The path I walk is in the wrong direction
 Gm
There's always someone f**king hanging on
 EbF
Can anybody help me make things better?

 EbF
Your tears don't fall

They crash around me
 EbF
Her conscience calls the guilty to come home
 EbF
Your tears don't fall

They crash around me
 EbF
Her conscience calls the guilty to come...BACK HOME!
 EbF
Your tears don't fall

They Crash around me
 EbF
Her conscience calls the guilty to come HOME!


Eb F Gm
variations - click chord images
Transpose chords:
Tuning:
Cool service:
View: Size:
A  A  A
Rating:
Layout:
  • Currently 3/5 Stars.
  • 1
  • 2
  • 3
  • 4
  • 5
 
Accuracy:
  • Currently 2.8/5 Stars.
  • 1
  • 2
  • 3
  • 4
  • 5
 
click stars to rate
Chordie recommends:
Learn to play guitar with video-based, online guitar lessons at JamPlay.com
Songbook:
Login to add this song to your songbook
Support the artist
Preview/buy this song
MSN Music
Why this non-profit ad?

 
login to add comments/video/corrections