Chordie logo

Pt 2 Sometimes They Do   Burden Of A Day



Burden of a Day
"Pt. 2 Sometimes They Do"
Blessed Be Our Ever After (2008)

Tuning: Drop C (C G C F A D)

Both Guitars (x2)
D|-------24\\\\-|
A|-------24\\\\-|
F|-------24\\\\-|
C|-0~-0~-24\\\\-|
G|-0~-0~-24\\\\-|
C|-0~-0~-24\\\\-|

Both
D|----------------------|
A|----------------------|
F|----------------------|
C|-0-0--0-0--8-8--10-10-|
G|-0-0--0-0--8-8--10-10-|
C|-0-0--0-0--8-8--10-10-|

Both
D|-----xxxx-----xxxx-----xxxx-------xxxx-|
A|-----xxxx-----xxxx-----xxxx-------xxxx-|
F|-----xxxx-----xxxx-----xxxx-------xxxx-|
C|-0-0-xxxx-0-0-xxxx-8-8-xxxx-10-10-xxxx-|
G|-0-0-xxxx-0-0-xxxx-8-8-xxxx-10-10-xxxx-|
C|-0-0-xxxx-0-0-xxxx-8-8-xxxx-10-10-xxxx-|

Guitar 1 (x2)
D|-------------------------------------------------------|
A|-------------------------------------------------------|
F|-----10101010-----10101010-----14141414-------12121212-|
C|-0-0--x-x-x-x-0-0--x-x-x-x-8-8--x-x-x-x-10-10--x-x-x-x-|
G|-0-0--8-8-8-8-0-0--8-8-8-8-8-8-12121212-10-10-10101010-|
C|-0-0----------0-0----------8-8----------10-10----------|

Guitar 2 (x2)
D|-------------------------------------------|
A|-----6666-----6666-----10101010-------8888-|
F|-----xxxx-----xxxx------x-x-x-x-------xxxx-|
C|-0-0-3333-0-0-3333-8-8--7-7-7-7-10-10-5555-|
G|-0-0------0-0------8-8----------10-10------|
C|-0-0------0-0------8-8----------10-10------|

Both Guitars
D|--------------------------------------------------------|
A|--------------------------------------------------------|
F|--------------------------------------------------------|
C|-0-0-0-0--0-0-00--0-00-0-00--0-0-00-1//8-0-00-0-00------|
G|-0-0-0-0--0-0-00--0-00-0-00--0-0-00-1//8-0-00-0-00------|
C|-0-0-0-0--0-0-00--0-00-0-00--0-0-00-1//8-0-00-0-00-8\\\-|

Guitar 1
D|----------------------------------------------------------------|
A|----------------------------------------------------------------|
F|----------------------------------------------------------------|
C|-800700507005007080070050708010080-800700507005--1//8-0-00-0-00-|
G|-------------------------------------------------1//8-0-00-0-00-|
C|-------------------------------------------------1//8-0-00-0-00-|

Guitar 2
D|--------------------------------------------|
A|--------------------------------------------|
F|--------------------------------------------|
C|-0-0-00--0-00-0-00--0-0-00--1//8--0-00-0-00-|
G|-0-0-00--0-00-0-00--0-0-00--1//8--0-00-0-00-|
C|-0-0-00--0-00-0-00--0-0-00--1//8--0-00-0-00-|
   * * **  * ** * **  * * **


Guitar 1
D|------------------------------|
A|------------------------------|
F|-3~-3-----3/5-----5/7---------|
C|-3~-3-----3/5-----5/7---------|
G|-1~-1-111-1/3-333-3/5-55555---|
C|------------------------------|
        ***     ***     *****

Guitar 2 (after guitar 1 above)
D|-----------|
A|-66666/888-|
F|-xxxxx/xxx-|
C|-33333/555-|
G|-----------|
C|-----------|

Guitar 1 (x2)
D|------------------------------------------|
A|------------------------------------------|
F|-333333/555555/777777/101010101010\555555-|
C|-333333/555555/777777/101010101010\555555-|
G|-111111/333333/555555/-7-7-7-7-7-7\333333-|
C|------------------------------------------|

Guitar 2 (x2)
D|------------------------------------------------|
A|-666666/888888/101010101010/131313131313\888888-|
F|-xxxxxx/xxxxxx/-x-x-x-x-x-x/-x-x-x-x-x-x\xxxxxx-|
C|-333333/555555/-7-7-7-7-7-7/101010101010\555555-|
G|------------------------------------------------|
C|------------------------------------------------|

Guitar 1
D|---------------------------------|
A|---------------------------------|
F|---------10-1010-10-1010-10-1010-|
C|-----10~--8--8-8--8--8-8--8--8-8-|
G|---8~----------------------------|
C|-8~------------------------------|


Guitar 2 (after guitar 1 above)
D|-------------|
A|-13-10-11-13-|

F|-------------|
C|-------------|
G|-------------|
C|-------------|

Guitar 1 (x8)              (on 4th & 8th time dont play this)
D|-------------------------|----------|
A|-------------------------|----------|
F|-10-1010-10-1010-10-1010-|-10-10-10-|
C|--8--8-8--8--8-8--8--8-8-|--8--8--8-|
G|-------------------------|----------|
C|-------------------------|----------|

Guitar 2 (x8)                   (on 4th & 8th time play this)
D|------------------------------|-------------|
A|-13-----13-----13-----13------|-13-10-11-13-|
F|---10-----10-----10-----10----|-------------|
C|-----10-----10-----10-----10--|-------------|
G|------------------------------|-------------|
C|------------------------------|-------------|

Both Guitars
D|----|
A|----|
F|----|
C|-0~-|
G|-0~-|
C|-0~-|

Both Guitars (x2)
D|----------------------------------------------------|
A|-----------------------------------6-6---6---6------|
F|-----------------------------------9-9---9---9------|
C|-0-12p0-10p0-0-0-0-10p0-8p0-7p0--0-----0---0--------|
G|-0-----------0-0-0---------------0-----0---0--------|
C|-0-----------0-0-0---------------0-----0---0---8-7b-|

Both Guitars (x2)
D|--------------------------------------------------|
A|---------------------------------6-6---6---6------|
F|---------------------------------9-9---9---9------|
C|-0-10p0-8p0-0-0-0-8p0-7p0-5p0--0-----0---0--------|
G|-0----------0-0-0--------------0-----0---0--------|
C|-0----------0-0-0--------------0-----0---0---8-7b-|

Both
D|----|
A|----|
F|----|
C|-0~-|
G|-0~-|


Important: The song above is NOT stored on the Chordie server. The original song is hosted at www.guitaretab.com. Chordie works as a search engine and provides on-the-fly formatting. Chordie does not index songs against artists/composers will. To remove this song please click here.

This song is displayed as text-only. Transposing and tuning is only available for chordpro-songs.

Login - add to songbook

Rating click stars to rate

Layout
Accuracy

SHARE PAGE  



You need to log in to post comments