Guitar Tabs, Chords and Lyrics


Warm Machine  Bush

-------------------------------------------------------------------------



-------------------------------------------------------------------------

    A [barre] F [barre]  G [barre]
e|--5---------1----------3---------------------------------------------|
B|--5---------1----------3---------------------------------------------|
G|--6---------2----------4---------------------------------------------|
D|--7---------3----------5---------------------------------------------|
A|--7---------3----------5---------------------------------------------|
E|--5---------1----------3---------------------------------------------|


Intro: [played witb distortion, or some cool effect]
Listen to the CD, this repeats several times, and you can hear
Gavin start to pick the intro again, but stops as the lyrics start.
Then he starts again... etc.

e|------------0-[let ring out]------------------------------------------|
B|--6---6-----5--5--5--5--5-->>slide to---10---10---8--8--8--8--8-------|
G|----------------------------------------------------------------------|
D|----------------------------------------------------------------------|
A|----------------------------------------------------------------------|
E|----------------------------------------------------------------------|


[Verse 1] 
I memorize the basics
Making strange faces
Tread slowly for I know; there's a thousand miles to go
Without blinking

I gravitate space wards
Find a home for my head
From my basement
No darkness ever left

[Cborus] 
This is the [A]night this is the [F]sound
G A F then G
Here comes the warm machine such a warm machine
[repeat A F G again] 
[Verse 2] 
Some days are playful
Making play faces
But we will not let it through; the darkness and the sense
Of being born to lose
[Repeat Cborus] 
[Middle] 
If we never know we can only feel
I'll take the help I'll take a slice
Warm alright now; ‘cos I feel alright
[play intro, tben solo] 
I memorize the basics, the basics, the basics
[Repeat Cborus] 
Solo: [starts witb intro, tben play tbis-]
e|----------------------------------------------------------------------|
B|--17--17--17-----17--17--17--17-(17)\\15---15--15--15--15--15--15-----|
G|----------------------------------------------------------------------|
D|----------------------------------------------------------------------|
A|----------------------------------------------------------------------|
E|----------------------------------------------------------------------|
e|----------------------------------------------------------------------|
B|--//15//17--17-----17-----17//20----------XX--------------------------|
G|----------------------------------------------------------------------|
D|----------------------------------------------------------------------|
A|----------------------------------------------------------------------|
E|----------------------------------------------------------------------|

Key:
\\ = Slide Down [to next note]
// = Slide Up [to next note]
XX = Pick Dead Note [mute tbe string witb your finger and pick]
During the verses, play what you like (or nothing at all.) The chorus and lead
intro / solo part are like 90% of the song.

Important: The song above is NOT stored on the Chordie server. The original song is hosted at www.guitaretab.com. Chordie works as a search engine and provides on-the-fly formatting. Chordie does not index songs against artists'/composers' will. To remove this song please click here.

Text color:
Chord color:
Chord grids: 
Font size:    
Page size: 

A F
variations - click chord images

Login - add to songbook

Transpose chords

Tuning

Rating click stars to rate

Layout
Accuracy

SHARE PAGE  




You need to log in to post comments