Guitar Tabs, Chords and Lyrics


Always   Butterfly Effect



SONG: ALWAYS
ALBUM: BEGINS HERE
TUNING: DROP C (C,G,C,F,A,D,)

THIS SOUNDS PRETTY SPOT ON. PLZ RATE


h = hammer on
* = palm mute

   riff 1                     RIFF 2
D-------------]----------------------------------------------------]
A-------------]----------------------------------------------------]
F-------------]----------------------------------------------------]
C-------------]--ALWAYS--------------------------------------------]
G-------------]-----------4-2-0-2-0-2--4-2-0-2-0-2--4-2-0-2-0-2----]
C--0h4-0h4----]-----------4-2-0-2-0-2--4-2-0-2-0-2--4-2-0-2-0-2----]


VERSE RIFF 1

   RIFF 3
D---------------------]-----------------------------]
A-PLAY 1ST TIME ONLY--]-THEN THIS X6----------------]
F---------------------]-----------------------------]
C---------------------]-----------------------------]
G--4-2-0-2-0-2--------]--4-2-0-2--0-2-4-2-0-2--0-2--]
C--4-2-0-2-0-2--------]--4-2-0-2--0-2-4-2-0-2--0-2--]
   * * * *               * *      * * * * * *


VERSE RIFF 1

   RIFF 4 CHORUS
D-----------------------------------------------------]
A------5-----7----------------------------------------]
F------4-----6----------------------------------------]
C------2-----4----------------------------------------]
G--0h2-2-2h4-4-4/10-10101010101010101010101010101010--]
C--0h2-2-2h4-4-4/10-10101010101010101010101010101010--]

feedback, riff 1

   RIFF 5 TREMELO AND REVERB

 CLEAN      DISTORTION     CLEAN
D-------]----------------]----------]
A--12---]----------------]--12--15--]
F-------]------11-----7--]----------]
C-------]--7/9----7/9----]----------]
G-------]----------------]----------]
C-------]----------------]----------]


RIFF 3 CHORUS


  RIFF 6 'its always....your always...........'               1st end
D------------------------------------------------------]--------------------|
A------------------------------------------------------]--------------------|
F------------------------------------------------------]--------------------|
C--9999999999999999-7777777777777777-5555555555555555--]--------------------|
G--7777777777777777-5555555555555555-3333333333333333--]--9----9-----10-9-7-|
C------------------------------------------------------]--9-00-9-000-10-9-7-|
                                                            **   ***
     2ND END
D----------------------------]
A----------------------------]
F----------------------------]
C----------------------------]
G--9----9-----9-10/9/7/5-4-0-]
C--9-00-9-000-9-10/9/7/5-4-0-]
     **   ***


INTRO RIFF1,RIFF2

  OUTRO               1st end  2nd    3rd    4th
D--------------------]-------]-----]-------]-----]
A--------------------]-------]-----]-------]-----]
F--------------------]-------]-----]-------]-----]
C--------------------]-------]--1--]-------]--1--]
G--4-2-0-2--4-2-0-2--]--0-2--]--1--]--0-2--]--1--]
C--4-2-0-2--4-2-0-2--]--0-2--]--1--]--0-2--]--1--]   end.


outro is played- main riff 1st end,main riff,2nd end,main riff,3rd end,main riff 4th end.

thats it.plz rate.



Important: The song above is NOT stored on the Chordie server. The original song is hosted at www.guitaretab.com. Chordie works as a search engine and provides on-the-fly formatting. Chordie does not index songs against artists'/composers' will. To remove this song please click here.

This song is displayed as text-only. Transposing and tuning is only available for chordpro-songs.

Login - add to songbook

Rating click stars to rate

Layout
Accuracy

SHARE PAGE  




You need to log in to post comments