Guitar Tabs, Chords and Lyrics


Waiting On The Guns   Butterglory







Date: Thu, 4 Jan 1996 08:56:11 -0500 (EST)



Waiting on the Guns
Butterglory


Verses:

Verse lyrics are sung over this guitar line, repeated as necessary.


E----------------------------------------------------------------------------|
B----------------------------------------------------------------------------|
G----------------------------------------------------------------------------|
D----------------------------------------------------------------------------|
A--11--11-11--12-12-12--11--11-11--12-12-12--11--11-11--12-12-12--5-9-9-7-7--|
E---0---0--0---0--0--0---0---0--0---0--0--0---0---0--0---0--0--0--0-0-0-0-0--|

The chorus is more complicated, since it actually uses the top *three*
strings :)


E-----------------------------------------------------------|
B-----------------------------------------------------------|
G-----------------------------------------------------------|
D--9-9-9-9-9--11-11-11-11-11--14-14-14-14-13-14-13----------|
A--7-7-7-7-7---9--9--9--9--9--12-12-12-12-12-12-12-13-13-13-|
E--0-0-0-0-0---0--0--0--0--0---0--0--0--0--0--0--0--0--0--0-|

I think that covers just about the whole song.


Ben McTernan
bc80233@bingsuns.cc.binghamton.edu


 guitar@nevada.edu


MIME-Version: 1.0
Content-Type: TEXT/PLAIN; charset=US-ASCII
Status: O

Waiting on the Guns
Butterglory


Verses:

Verse lyrics are sung over this guitar line, repeated as necessary.


E----------------------------------------------------------------------------|
B----------------------------------------------------------------------------|
G----------------------------------------------------------------------------|
D----------------------------------------------------------------------------|
A--11--11-11--12-12-12--11--11-11--12-12-12--11--11-11--12-12-12--5-9-9-7-7--|
E---0---0--0---0--0--0---0---0--0---0--0--0---0---0--0---0--0--0--0-0-0-0-0--|

The chorus is more complicated, since it actually uses the top *three*
strings :)


E-----------------------------------------------------------|
B-----------------------------------------------------------|
G-----------------------------------------------------------|
D--9-9-9-9-9--11-11-11-11-11--14-14-14-14-13-14-13----------|
A--7-7-7-7-7---9--9--9--9--9--12-12-12-12-12-12-12-13-13-13-|
E--0-0-0-0-0---0--0--0--0--0---0--0--0--0--0--0--0--0--0--0-|

I think that covers just about the whole song.


Ben McTernan


Important: The song above is NOT stored on the Chordie server. The original song is hosted at www.guitaretab.com. Chordie works as a search engine and provides on-the-fly formatting. Chordie does not index songs against artists'/composers' will. To remove this song please click here.

This song is displayed as text-only. Transposing and tuning is only available for chordpro-songs.

Login - add to songbook

Rating click stars to rate

Layout
Accuracy

SHARE PAGE  




You need to log in to post comments