Guitar Tabs, Chords and Lyrics


q Pope   Butthole Surfers



-------------------------------------------------------------------------------
			     BAR-B-Q POPE - Butthole Surfers
-------------------------------------------------------------------------------

Tabbed by: Tyler J
Email: full_metal_orange AT hotmail DOT com

Tuning: Standard

Intro:

E-------------------------------------------------------------------|
B--------------------------------0---------------------0------------|
G------2--------0--------0-----0---0-------2-0------0--0------------|
D----2---2----2---2----0-----0-----------2--------2-----------------|
A--0-------\3-------\5-----4-----------0--------3------2------------|
E-----------------------------------------------------------0-2-3-4-|

Scream part:

E-------------|
B-------------|
G--2---2---2--|
D--2---2---2--| etc
A--0---0---0--|
E-------------|

Barbeque part:

E--------------------------------------------------------------------|
B-----2---------5---------7-7--6-6--------2--------5-----------------|
G-----2-2-------5-------7-7-7--6---6------2-2------5--5--4-----------|
D--2--2-2-----5-5--5\7--7-7-7--6-----6----2-2--2-2-5--5--4-----------|
A--0--0-0---3-3-3--3\5--5-5-5--4----------0-0--0-0-3--3--2-----------|
E------------------------------------------------------------0-2-3-4-|

Solo:

/ = tremolo pick (listen to record for timing)

 let notes bleed..
E--------0------------------------------------------------0-----------0----|
B--------0-------------------------------4----------------0-----------0----|
G-----5--5--/4-2-0---0---0^2~--2\4-0-4-5---5-(5)\14~~--14---0-12~~-12---0--|
D--7--7--7---------0---0---------------------------------------------------|
A--0--0--0-----------------------------------------------------------------|
E--/--/--/-----------------------------------------------------------------|

E--0---0--0--0--0--0--0--0--0--0--0--0--0---|
B--5---5--5--5--5--5--5--0--0--0--0--0--0---|
G--7b-(7)(7)(7)(7)(7)(7)(7)(7)(7)(7)(7)-7r--|  => Intro...
D-------------------------------------------|     Verse...
A-------------------------------------------|
E-------------------------------------------|

Repeat the solo towards the end, w/ some variation. End on intro riff.

-------------------------------------------------
THE BUTTHOLE SURFERS GUITAR/BASS TAB ARCHIVE:
http://www.islandnet.com/~mustang/1401/index.html


Important: The song above is NOT stored on the Chordie server. The original song is hosted at www.guitaretab.com. Chordie works as a search engine and provides on-the-fly formatting. Chordie does not index songs against artists'/composers' will. To remove this song please click here.

This song is displayed as text-only. Transposing and tuning is only available for chordpro-songs.

Login - add to songbook

Rating click stars to rate

Layout
Accuracy

SHARE PAGE  




You need to log in to post comments