Chordie logo

Novembers Lie   Grace Of God













"November's Lie" by By the Grace of God
Tabbed by Matt Sonesen (nailbomb_x@hotmail.com)


Tuning:  Standard


Chords|

Part A            Part B                Part C
e|-------0---0--|--------------|----------------------------------|
B|-------0---0--|--------------|----------------------------------|
G|--------------|--x10--x6--x6-|---x4--x3--x3--x3--x6--x6--x6--x6-|
D|--*-----------|-9----10--12--|-14---12--11--5---7---12--11--9---|
A|-/X--2---2----|-7----8---10--|-12---10--9---3---5---10--9---7---|
E|-/X--0---0----|--------------|----------------------------------|

Part D
A|-2-2-2-2-2-2-2-3-3-3-3-3-5-5-5-5-5-|
E|-0-0-0-0-0-0-0-1-1-1-1-1-3-3-3-3-3-|

*Pick scrape down...


Structure:

1 X A
4 X B
2 X C
4 X D
4 x B
2 x C


Lyrics

Democracy is handed to ius as a power against us by power of us.
Democracy long live the
mighty corporation.  We serve until the end.  Democracy long live the
might corruption.
We'll defend we seek to pacify so the wealthy can endure we pay for the
trickle down, so we
can feed the poor, we elect impotent men with views they represent they
turn their backs and
run to avoid corporate dissent.  Youve got your fingers on us all, but
your hands cant grasp
us all.  Im not just fuel for your machine, I breathe I feel I think I
dream.  I wont pledge
my allegance towards this
----

"Do you know yourself, do you know the others.  Can you pull the weight
that rides on
 anothers shoulders.  Once you've lost yourself to the acceptance mask,
well could you find
 yourself, it's not a simple task...can you, let go, can you, be you."

"Caboose", Snapcase

X Point Blank X  --  http://members.tripod.com/~nailbomb

Skateboarding, Hardcore Music, Japanime....(and more!)

______________________________________________________


Important: The song above is NOT stored on the Chordie server. The original song is hosted at www.guitaretab.com. Chordie works as a search engine and provides on-the-fly formatting. Chordie does not index songs against artists/composers will. To remove this song please click here.

This song is displayed as text-only. Transposing and tuning is only available for chordpro-songs.

Login - add to songbook

Rating click stars to rate

Layout
Accuracy

SHARE PAGE  

You need to log in to post comments