Guitar Tabs, Chords and Lyrics

So You Want To Be A Rock N Roll Star   Byrds

These are based off of the tabs from RICKL1@IX.NETCOM.COM
He or She had the chords right for the song and the notes right for the intros, but not 
right order.

Here is the intro and the intro solo type thing. The chords for the song can be seen at 

This is taken from the original 7" recording.

E |----------------------------|
B |----------------------------|
G |----------------2-----------|
D |-------0--------------------|
A |----------0--2--------------|
E |-2--3-----------------------|

E |----------------------------------------------------------|
B |-3--3--3--2--2--0—-0--------------------------------------|
G |----------------------2--2-4--0--0------------------------|
D |------------------------------------4--4--5--5—-7---------|
A |----------------------------------------------------------|

Important: The song above is NOT stored on the Chordie server. The original song is hosted at Chordie works as a search engine and provides on-the-fly formatting. Chordie does not index songs against artists/composers will. To remove this song please click here.

This song is displayed as text-only. Transposing and tuning is only available for chordpro-songs.

Login - add to songbook

Rating click stars to rate



You need to log in to post comments