Guitar Tabs, Chords and Lyrics


O Dia De Amanha  Cachorro Grande

G-------|


D-------|


A-------|

E[G]u preciso do[Bm] dia de am[Em]anhã, a[Bm]cordar de m[Em]anhã
u[F]m novo dia
E[G]u te levo para qua[Bm]lquer l[Em]ugar, pra[Bm] poder ca[Em]ntar
u[F]m novo dia, ma[Em]nhã[Eb] como ser[F]ia
T[G]anta coisa tenho q[Bm]ue pen[Em]sar [Bm]e repe[Em]nsar
u[F]m novo dia
D[G]ia desses se eu n[Bm]ão acor[Em]dar eu[Bm] não vou mais [Em]cantar
u[F]m novo dia, m[Em]anhã c[Eb]omo ser[F]ia
M[Em]anhã, [Eb]um outro d[F]ia
Solo: (tocado 2x)
    [G]                [Bm]                      [Em]                     [F]                                  
E----------------12-14-14b--12----12-----------------------------------------------------|
B--15b17-12--15----------------15----15s17-12--12----------------------------------------|
G-------------------------------------------------14-12----12-14--14b-12-12----12-14-12--|
D-------------------------------------------------------14------------------14-----------|
A----------------------------------------------------------------------------------------|
E----------------------------------------------------------------------------------------|


E[G]u preciso do[Bm] dia de am[Em]anhã, a[Bm]cordar de m[Em]anhã
u[F]m novo dia
D[G]ia desses se eu n[Bm]ão acor[Em]dar e[Bm]u não vou ma[Em]is cantar
u[F]m novo dia, m[Em]anhã com[Eb]o ser[F]ia
M[Em]anhã, um[Eb] outro [F]dia

FINAL
Guitarra 1 (base tocada durante o solo da guitarra 2)
E-----------------------------------|
B-----------------------------------|
G-9-9-9-9----7-7-7-7----5--5--7--9--|
D-9-9-9-9----7-7-7-7----5--5--7--9--|
A-7-7-7-7----5-5-5-5----3--3--5--7--|
E-----------------------------------|


Guitarra 2:
Riff 1
E-15b17-----------------------------------15b17----------------------------15b17--|
B-------17--17b19-15--15b17--13-13-15-17---------17-17b19-15--15b17--13-13--------|
G---------------------------------------------------------------------------------|
D---------------------------------------------------------------------------------|
A---------------------------------------------------------------------------------|
E---------------------------------------------------------------------------------|


Riff 2
E-22b-19--19b-17-17b19--15-15---22b-19---15b17----------------------------15b17---|
B----------------------------------------------17--17b19-15--15b17--13-13---------|
G---------------------------------------------------------------------------------|
D---------------------------------------------------------------------------------|
A---------------------------------------------------------------------------------|
E---------------------------------------------------------------------------------|


Riff 1
Riff 2

Important: The song above is NOT stored on the Chordie server. The original song is hosted at www.guitaretab.com. Chordie works as a search engine and provides on-the-fly formatting. Chordie does not index songs against artists'/composers' will. To remove this song please click here.

Text color:
Chord color:
Chord grids: 
Font size:    
Page size: 

Bm Eb Em F G
variations - click chord images

Login - add to songbook

Transpose chords

Tuning

Rating click stars to rate

Layout
Accuracy

SHARE PAGE  




You need to log in to post comments