Guitar Tabs, Chords and Lyrics


Vai T Q Da  Cachorro Grande

e-12-12--12-10-10--|


B-12-12--12-10-10--|


G-13-13--13-11-11--|

D------------------|
A------------------|
E------------------|
N[Bm]ascimento, cre[A]scimento e[E] o mundo a girar
E[Bm] o fogo que to[A]mamos pra [G]variar
P[Bm]ensa que a v[A]ida é um m[E]orango encantado
Bm A G Intro
Sim, vai te que dá. Vai te que dá!

P[Bm]aciência, con[A]sciência e[E] os sonhos de verão
E[Bm]u acompanho[A] a movimen[G]tação
[Bm]Do elemento q[A]ue transforma o [E]pensamento em acão
S[Bm]im, vai te que d[A]á. Vai te que [G]dá![F#]

Riff 1 (2 vezes)
e--------------------------------------|
B--------------------------------------|
G---------------------------4s6--4-2-4-|
D--------------------------------------|
A--------------------------------------|
E-2-2-0-2--2-2-0-5--2-2-0-2------------|


Riff 2
e--------------------------------------|
B--------------------------------------|
G---------------------------4s6--4-2-4-|
D--------------------------------------|
A----------------2---------------------|
E-2-2-0-2--2-2-0----2-2-0-2------------|


F# B E A Riff 2
Em apenas um segundo, podemos ir para o fundo
F# B E A Riff 2
Tudo aqui é tão real, mas não me sinto normal

[F#]Papap[B]apap[E]apa[A]papa
[F#]Papap[B]apap[E]apapapapa yeah

Interlude (se alguém tiver alguma idéia de como tocar, mande aí)

Intro

N[Bm]ascimento, cre[A]scimento e[E] o mundo a girar
E[Bm] o fogo que to[A]mamos pra [G]variar
P[Bm]ensa que a v[A]ida é um m[E]orango encantado
Bm A G Intro
Sim, vai te que dá. Vai te que dá!
S[Bm]im, vai te que d[A]á. Vai te que d[G]á!

Final:
e-12-12--12-10-10--12-12--12-10-10--12-12--12-10-10---7--|
B-12-12--12-10-10--12-12--12-10-10--12-12--12-10-10---7--|
G-13-13--13-11-11--13-13--13-11-11--13-13--13-11-11---7--|
D--------------------------------------------------------|
A--------------------------------------------------------|
E--------------------------------------------------------|				


Important: The song above is NOT stored on the Chordie server. The original song is hosted at www.guitaretab.com. Chordie works as a search engine and provides on-the-fly formatting. Chordie does not index songs against artists'/composers' will. To remove this song please click here.

Text color:
Chord color:
Chord grids: 
Font size:    
Page size: 

A B Bm E F# G
variations - click chord images

Login - add to songbook

Transpose chords

Tuning

Rating click stars to rate

Layout
Accuracy

SHARE PAGE  




You need to log in to post comments