Chordie logo

Truth  Caedmon's Call

The Truth---Caedmon's Call------------------------Transfered by Asa Gaston



























      E-|---|-----------|-----------|-----------|-----------|


      B-|--3|------3----|-----------|-----------|-----------|


      G-|--0|----------0|------0---0|------0---0|------0---0|


      D-|--0|----------0|02----0---0|------0---0|------0---0|


      A-|---|-----------|3-------3--|0h2--------|0---0------|


      E-|---|0----------|-----------|3-------3--|3---3---2--|





            |-----------|-----------|-----------|0h2---2---3|


            |-----------|-----------|----------3|3-----3---3|


            |------0---0|------0---0|------0---0|0h2---2---0|


            |----------0|02----0---0|------0---0|0-------0--|


            |-----------|3-----3---3|0h2--------|-----------|


            |0-------0--|-----------|3-------3--|-----------|





            |-----------|-----------|-----------|0h2---2---3|


            |-----------|----------3|----------3|3-----3---3|


            |------0---0|----------0|------0---0|0h2---2---0|


            |------0---0|02----0----|------0----|0-------0--|


            |--------2--|3-----3----|0h2--------|-----------|


            |0----------|-----------|3-------3--|-----------|





            |------3---0h2-----2---0h3-----3x---|-----------|


            |------3---3|------3---3|------3x---|-----------|


            |-----------|--------0--|-----------|-----------|


            |-----------|-----------|-----------|-----------|


            |3----------|3---3------|3---3--x---|23--2------|


            |-----------|-----------|-----------|--------02-|



VERSE 1: |Em7 . . |C9 . . |G . . |/F# . . |(7x)
|Em7 . . |C9 . . |G . . |D . . |
|C9 . . |C2 . . |


BRIDGE 1: |G . . |. . * |Em7 . . |. . . |(2)
|C9 . . |C11 . . |C9 . . |C2 . . |(x)


CHORUS: |G . . |G . . |C9 . . |C9 . . |
|Em7 . . |D . . |C9 . . |C9 . . |
|G . . |G . . |Em7 . . |Em7 . . |
|D . . |D . . |C9 . . |C2 . . |
|C9 . . |D4 . . |


HALF INTRO: |Em7 . . |C9 . . |G . . |. . * |
|Em7 . . |C9 . . |G . . |D¤ . .D4|


VERSE 2:
[Em7]       [C9]       [G]       [/F#]       [C9]       [C9]  

BRIDGE 2:
[G]       [Em7]       [C9]       [C2]       [C9]       [C2]  

CHORUS:
[C9]       [D4]                              

SOLO: |C9 . . |. . C2 |G . . |Em7 . . |
|C9 . . |C2 . . |C9 . . |C2 . . |


VERSE 3 (half-verse):

REPEAT CHORUS

OUTRO: |C9 . . |. . C2 |G . . |/B . . |
|C9 . . |C2 . . |C9 . . |D . . |

|Em7 . . |C9 . . |G . . |. . * |
|Em7 . . |C9 . . |G |

Important: The song above is NOT stored on the Chordie server. The original song is hosted at www.guitaretab.com. Chordie works as a search engine and provides on-the-fly formatting. Chordie does not index songs against artists/composers will. To remove this song please click here.

C2 C9 D4 Em7 G
variations - click chord images

Login - add to songbook

Transpose chords

Tuning

Rating click stars to rate

Layout
Accuracy

SHARE PAGE  



You need to log in to post comments