Lead Of Love

Caedmon's Call

Lead Of Love---Caedmon's Call---------------------Transfered by Asa Gaston

e|---0----------------0(2,0,0)----0----0--- ---0----0---
b|---0----------------0(0,2,0)----0----0--- ---0----0---
g|---1(h2,p1)----(1h2)2-----------4----6--- ---6----8---
d|---2----------------2-----------4----6--- ---7----9---
a|---2----------------0-----------2----4--- ---7----9---
e|---0----------------x-----------x----x--- ---5----7---
 EA9Bsus4C#m7A9Bsus4
                                               (try these alternate
() = optional/ad-lib fingerings to spice
h = hammer-on up the guitar solo
p = pull-off section)
s = slide

***********************************************************************
Opening to "Lead of Love"
Written by Aaron Tate
Arranged by Caedmon's Call
Transcribed by Alex. =)

Here's the opening of "Lead of Love." Just capo on 2, it's all on
the highest three strings (G, B, E). The highest two strings (B, E)
are always open (no fingers, just play the capoed note), so
basically you just move up and down the G string. Just make sure
your finger doesn't hit the open strings, to keep them ringing.

Since the highest two strings are always open, I numbered them as 0,
(even though they're technically 2nd fret because of the capo), but
for the G string I've named the fret by the ACTUAL number, so it's
easier to figure out where you are that way.

And as in all tab, make sure you're reading this in a font that
gives equal spaces for each character (ex. courier), or else the
lines won't line up.

*
   E|-------0--------0-----------0----0--------0----------|
   B|----------0-------0-----------------0--------0-----0-|
   G|--11--------10------10----10-8--------6--------6-----|
   E|-------0------------0--------------0--------0----------|
   B|----------0------------0-----0--------0--------0-----0-|
   G|--11--------11/13--------13----8--------6--------6-----|


* = these three notes are rhythmically faster, cross
the strings quick.
11/13 = slide from 11 to 13

Thatalex@aol.com

***********************************************************************

 intro
   E, A9, E, A9

e|-----0-----0----0----0-----0----0----0----0----0----0-----0---0-
b|--5-----4-----4---2-----0-----0---5----5s7---7---2-----0----0---
g|----------------------------------------------------------------
d|----------------------------------------------------------------
a|----------------------------------------------------------------
e|----------------------------------------------------------------


Normally Alex's version of the intro is better, but on a 12-string
use this version on just the bottom two "courses" (pairs of strings), b
and e. I run through the intro lick--Alex's unless I'm on a
12-string--once, and then I start strumming the full chords.

Once you go to strumming full chords, the easiest way is to use
the basic E and A9 fingerings. This way your hand is always in the
same position at the second fret. You can also add the hammer to the E
and the optional notes to the A9 with your pinky finger. This puts
part of the intro lick within the chords and spices things up a bit.
But here's an even better way that's not much more difficult:

e|---0-----0---------0-----0---------0-----0---------0-----0---
b|---0-----0---------0-----0---------0-----7---------0-----0---
g|---9-----8---------6-----1---------9-----9---------6-----2---
d|---9-----9---------7-----2---------9-----9---------7-----2---
a|---7-----9---------7-----2---------0-----0---------0-----0---
e|---0-----0---------0-----0---------x-----x---------x-----x---

 EEmaj7Esus6EA9Asus6A9A9
These chords also contain the intro lick and sound much better
than just the basic E and A9. I use these in the intro, after the
first chorus, and in the outro, though I use the basic E and A9 for
about half of the outro to keep these from getting monotonous. Note
that you can play all this keeping your ring finger on the 4th string.

 verse 1
 EA9
 verse 2
 EA9
 bridge
 C#m7Bsus4C#m7Bsus4
 cborus
 EA9
 E      Bsus4 (one clean strum)

 verse 3
 EA9
 repeat bridge
 C#m7Bsus4C#m7Bsus4
 repeat cborus
 EBsus4
 guitar solo
   A9, Bsus4 (4x)

 repeat cborus
 EA9
 E       Bsus4 (one hard strum, then building to the E)

 outro
   E, A9 (4x) E


A9 Bsus4 C#m7 E Emaj7
variations - click chord images
Transpose chords:
Tuning:
Cool service:
View: Size:
A  A  A
Rating:
Layout:
  • Currently 3.2/5 Stars.
  • 1
  • 2
  • 3
  • 4
  • 5
 
Accuracy:
  • Currently 2.9/5 Stars.
  • 1
  • 2
  • 3
  • 4
  • 5
 
click stars to rate
Chordie recommends:
Learn to play guitar with video-based, online guitar lessons at JamPlay.com
Songbook:
Login to add this song to your songbook
Support the artist
Preview/buy this song
MSN Music
Why this non-profit ad?

 
login to add comments/video/corrections