Guitar Tabs, Chords and Lyrics


Austin Sessions  Caedmon's Call

[244222]          [F#m]                           

[intro lick 4x] 

Count 1 2 3 4 1 2 3 4
   e-|----2-----2----|------3--------|
   b-|----3---------3|----------3----|
   g-|----2----------|----0---------0|
   d-|0--------------|---------------|
   a-|---------------|0h2------------|
   e-|---------------|---------------|

D.............. G/B............


[verse 1] 
[G]  WHATCHA BEEN [A]DOIN' TOD[D]AY [Dsus]
[G] 'CAUSE I'VE BEEN T[A]HINKIN' ABOUT Y[Bm]OU  [A]
[G]  JUST HEARD SOME [A]NEWS THAT SET MY [D]MIND TO [Bm]WONDERING
[G]  AND I [A]NEED TO HEAR YOUR [D]VOICE [G/B]
[verse 2] 
[G]  ARE YOU [A]OUT ON THE PLA[D]INS [Dsus]
[G]  BURNIN' YOUR [A]FEET ON THE [Bm]GROUND [A]
[G]  OUT WHERE [A]NO ONE EVEN [D]KNOWS YOUR [Bm]NAME
[G]  SEVENTY [A]MILES OUT OF [D]TOWN [G/B]
[cborus] 
[Em7] 'CAUSE WE MISS YOU
[D/F#]  DO YOU MISS US
[G]  WHAT IS THE LANGUAGE
  [Gm]WITH WHICH THESE WORDS I CAN TRUST
[D]  THAT I THANK MY[A] GOD
  EVERY [G]TIME
[A]  I REMEMBER YOU
[repeat intro lick 4x (8 bar organ solo] 
[verse 3] 
[G]  WHATCHA BEEN [A]THINKIN' ABO[D]UT [Dsus]
[G] 'CAUSE I'VE BEEN T[A]HINKIN' ABOUT L[Bm]IFE  [A]
[G]  AND HOW [A]NOTHING CAN ES[D]CAPE THE GOVERN[Bm]ING OF GOD
[G]  STILL [A]SOMEHOW THAT JUST [D]DOESN'T COMFORT [Bm]ME TONIGHT
[G]  I STILL [A]NEED TO HEAR YOUR VO[D]ICE [G/B]
[cborus] 
[Em7]  NOW I HEAR YOU
[D/F#]  DO YOU HEAR ME
[G]  WHAT MEDIUM IS THERE
[Gm]  THAT I CAN USE TO MAKE YOU SEE
[D]  THAT I THANK MY [A]GOD
  EVERY [G]TIME
[A]  I REMEMBER YOU
[bridge] 
[Bm]  BENDING DOWN TO [A]HELP A FLOWER DRY WITH POVERTY
[Bm]  HELPING IT TO [F#m]UNDERSTAND ITS INHERITANCE
[Em7]  HOW I REMEMBER [D/F#]LIFE SO BRIGHT  (I remember you)
  EVERY TIME I [G]CLOSE MY EYES
  I CAN [Gm]SEE YOU
[8 bar guitar solo]  D, A, G, A
[tag] 
[Em7]  BROTHER YOU [D/F#]MADE IT
  BROTHER YOU [G]MADE IT
  BROTHER YOU [Gm]MADE IT OH
[D]  AND I THANK MY GOD
[A]  JUST EVERY [G]TIME
[A]  AND I THANK MY [G]GOD
  EVERY [A]TIME I REMEMBER YOU
[repeat intro lick 4x] 
I REMEMBER YOU


2. There You Go


Intro/Verse riff:
For "The Austin Sessions" use these 2 riffs. Listen to the CD to
know which one goes where.


    e--------------------------------------
    B---3---3---3---3---3-----3---5-5p3----
    G-----2-------2-------2h4---2-------2--
    D-0-------4-------5--------------------
    A--------------------------------------
    E--------------------------------------
    e------------------------------------------
    B---3---3---3---3---3-----3---5p3----------
    G-----2-------2-------2h4---2----4p2-------
    D-0-------4-------5-----------------4p2p0--
    A------------------------------------------
    E------------------------------------------


For "40 Acres" use this riff:
    e------------------------------------
    B---3---3---3---3---3-----3---3---2--
    G-----2-------2-------2h4---2---2----
    D-0-------4-------5------------------
    A------------------------------------
    E------------------------------------


Riff 2: (for "40 Acres" only)
e-------------------0-----2-----3----2---
B---3---3---3---3-----3-----3-----3---3--
G-----2-------2--------------------------
D-0-------4-------0-----0-----0-----0----
A----------------------------------------
E----------------------------------------


Riff 3: (for "40 Acres" only)
e--3---2---0---2----
B----3---3---3---3--
G-------------------
D-------------------
A-------------------
E-------------------


Riff 4: (for "40 Acres" only)
()=optional
e----------------(3)-(2)-(0)---------
B---3---3---3---3---3---3---3-(3)-3--
G-----2-------2----------------------
D-0-------4-------5---4---2----0-----
A------------------------------------
E------------------------------------


Verse 1:(use the intro/verse riff)
Is this the strange feeling
Of you working all to good
'Cause I am so confused
I don't even ask for what I should

[D]  [Bm]     [G]     [A] 
When I asked for and deserved a stone
[D]    [Bm]            [G]      [A] 
You broke and gave your body as bread
[D]   [Bm]   [G]                [A]      [D]       [Bm] 
And even the stone that dropped down and rolled away
[G] (Riff 2)
Spoke of the one who bled

Chorus:
T[D]here you [Bm]go wo[G]rking good from my bad
T[D]here you [Bm]go ma[G]king robes from my r[A]ags
T[D]here you [Bm]go me[G]lting crowns from my calves
T[D]here you [Bm]go wo[G]rking good of all I have
G (1st time Riff 3/2nd time Riff 4)
Till all I have's not that bad

Verse 2:(use the intro/verse riff)
[D]  [Bm]     [G]     [A] 
When I asked for and deserved a serpent
[D]  [Bm] [G]         [A] 
You gave a net full of fish
[D]   [Bm]    [G]        [A] 
And even the serpent that told the lie
(Riff 2) [D]  [Bm]   [G]
When lifted high foretold the gift

Chorus

[D2bD]  [A] 
[D2bD]  [A] 
[D2bD]  [A] 
[D]  [A]  [D] 

Bridge:
(A) [Bm]    [G]
For you so loved the unlovable
(A) [Bm]  [G]
That you gave the ineffable
(Bsus4) [Bm]  [G]
That who so believes the unbelievable
(Bsus4) [Em]    [A2]
Will gain the unattainable

[E]     [Bsus4]         [E]     [A2]                  
Chorus 2x

Play Intro/Verse riff 2x
End on D

Chords:
D Bm G A A2 Bsus4 E D2hD Em
e-2--2---3----3--0--0-----0----0---0h2---0---
B-3--3---3----0--2--0-----0----0---3-----0---
G-2--4---0-or-0--2--2-----4----2---2-----0---
D-0--4---0----0--2--2-----4----2---0-----2---
A-0--2---2----2--0--0-----2----1---0-----2---
E--------3----3--------------------------0---



3. Table For Two


Chord - Name
XX0230 D (adlib hammer 1st and 3rd strings on 2nd fret)
X4023X D/C#
X2023X D/B
X0023X D/A
3X003X G
2X023X D/F#
0X003X Em7
X0203X A7sus
X2443X Bm
2X443X Bm/F#
0X010X E7
X2010X E7/B
3X000X Gh (hammer 3X201X on and off)
X0202X A7
2X003X G/F#
X02230 Asus
X02220 A


INTRO: D, /C#, /B, /A, G, D/F#, Em7, A7sus (2x)


VERSE 1:
[D]Danny and[/C#] I spent [/B]another late[/A] night over [G]pancakes [D/F#]      [Em7]     [A7sus]
Bm /F# E7 /B Gh
We talked about soccer and how every man's just the same
And [D]made specu[/C#]lation on the [/B]'who's and the '[/A]when's of our [G]futures [D/F#]      [Em7]     [A7sus]
And how [Bm]everyone's [/F#]lonely but s[E7]till we just [A7]couldn't compl[D]ain


CHORUS 1:
And how [G]we [/F#]just [Em7]hate [D]being al[Asus]one   [A]
Could [G]I [/F#]have [Em7]left [D]my only c[Asus]hance [A]
And [G]now [/F#]I'm [Em7]just [D]wasting my[Asus] time [A]
Gh
Looking around


VERSE 2:
But you know I know better I'm not gonna worry 'bout nothing
'Cause if the birds and the flowers survive then I'll make it okay
If given a chance and a rock see which one breaks a window
And see which one keeps me up all night and into the day


CHORUS 2:
Because I'm so scared of being alone
That I forgot what house I live in
But it's not my job to wait by the phone
For her to call


VERSE 3:
Well this day's been crazy but everything's happened on schedule
From the rain and the cold to the drink that I spilled on my shirt
'Cause You knew how You'd save me before I fell dead in the garden
And You knew this day long before You made me out of dirt


CHORUS 3:
And You know the plan You have for me
And You can't plan the ends and not plan the means
And so I suppose I just need some peace
To get me to sleep


enjoy

Important: The song above is NOT stored on the Chordie server. The original song is hosted at www.guitaretab.com. Chordie works as a search engine and provides on-the-fly formatting. Chordie does not index songs against artists'/composers' will. To remove this song please click here.

Text color:
Chord color:
Chord grids: 
Font size:    
Page size: 

A A2 A7 A7sus Asus Bm Bsus4 D D/F# Dsus E E7 Em Em7 F#m G G/B Gm
variations - click chord images

Login - add to songbook

Transpose chords

Tuning

Rating click stars to rate

Layout
Accuracy

SHARE PAGE  




You need to log in to post comments